ISO-10303-21;
HEADER;
FILE_DESCRIPTION (( 'STEP AP203' ),
    '1' );
FILE_NAME ('321234.step',
    '2021-11-26T13:01:39',
    ( '' ),
    ( '' ),
    'SwSTEP 2.0',
    'SolidWorks 2019',
    '' );
FILE_SCHEMA (( 'CONFIG_CONTROL_DESIGN' ));
ENDSEC;

DATA;
#1 = ADVANCED_FACE ( 'NONE', ( #56, #86 ), #89, .T. ) ;
#2 = AXIS2_PLACEMENT_3D ( 'NONE', #36, #85, #162 ) ;
#3 = DIRECTION ( 'NONE',  ( 1.912158493386911581E-30, -1.000000000000000000, 5.476639591665369838E-16 ) ) ;
#4 = CARTESIAN_POINT ( 'NONE',  ( 3.869445280877825814E-14, -1.163330317703974832E-15, 11.08253175473057794 ) ) ;
#5 = ADVANCED_FACE ( 'NONE', ( #8 ), #130, .T. ) ;
#6 = APPROVAL_PERSON_ORGANIZATION ( #100, #229, #77 ) ;
#7 = DIRECTION ( 'NONE',  ( 3.491481338843133355E-15, 5.476639591665369838E-16, 1.000000000000000000 ) ) ;
#8 = FACE_OUTER_BOUND ( 'NONE', #22, .T. ) ;
#9 = FACE_BOUND ( 'NONE', #124, .T. ) ;
#10 = VERTEX_POINT ( 'NONE', #148 ) ;
#11 = EDGE_CURVE ( 'NONE', #74, #74, #43, .T. ) ;
#12 = CALENDAR_DATE ( 2021, 26, 11 ) ;
#13 = EDGE_CURVE ( 'NONE', #195, #195, #219, .T. ) ;
#14 = DATE_AND_TIME ( #198, #134 ) ;
#15 = APPROVAL_STATUS ( 'not_yet_approved' ) ;
#16 = APPROVAL_PERSON_ORGANIZATION ( #135, #61, #121 ) ;
#17 = CLOSED_SHELL ( 'NONE', ( #173, #1, #142, #235, #53 ) ) ;
#18 = APPLICATION_PROTOCOL_DEFINITION ( 'international standard', 'config_control_design', 1994, #129 ) ;
#19 = CC_DESIGN_DATE_AND_TIME_ASSIGNMENT ( #176, #65, ( #146 ) ) ;
#20 = FACE_OUTER_BOUND ( 'NONE', #177, .T. ) ;
#21 = DIRECTION ( 'NONE',  ( -3.491481338843133355E-15, -5.476639591665369838E-16, -1.000000000000000000 ) ) ;
#22 = EDGE_LOOP ( 'NONE', ( #147 ) ) ;
#23 = CC_DESIGN_SECURITY_CLASSIFICATION ( #165, ( #99 ) ) ;
#24 = EDGE_LOOP ( 'NONE', ( #52 ) ) ;
#25 = PRODUCT_DEFINITION_SHAPE ( 'NONE', 'NONE',  #146 ) ;
#26 = APPLICATION_PROTOCOL_DEFINITION ( 'international standard', 'config_control_design', 1994, #109 ) ;
#27 = DIRECTION ( 'NONE',  ( -3.726103882732274298E-30, 1.000000000000000000, -1.048805003613551803E-15 ) ) ;
#28 = EDGE_CURVE ( 'NONE', #234, #234, #102, .T. ) ;
#29 = FACE_OUTER_BOUND ( 'NONE', #166, .T. ) ;
#30 = DIRECTION ( 'NONE',  ( 1.000000000000000000, 0.0000000000000000000, 0.0000000000000000000 ) ) ;
#31 = AXIS2_PLACEMENT_3D ( 'NONE', #238, #47, #131 ) ;
#32 = ORIENTED_EDGE ( 'NONE', *, *, #13, .T. ) ;
#33 = CALENDAR_DATE ( 2021, 26, 11 ) ;
#34 = CC_DESIGN_APPROVAL ( #229, ( #99 ) ) ;
#35 = ORIENTED_EDGE ( 'NONE', *, *, #200, .F. ) ;
#36 = CARTESIAN_POINT ( 'NONE',  ( 0.0000000000000000000, 0.0000000000000000000, 0.0000000000000000000 ) ) ;
#37 = DIRECTION ( 'NONE',  ( 3.664998382197393967E-31, 1.000000000000000000, 1.049697256412017316E-16 ) ) ;
#38 = AXIS2_PLACEMENT_3D ( 'NONE', #73, #151, #62 ) ;
#39 = CARTESIAN_POINT ( 'NONE',  ( 3.776314965560475020E-14, 5.923421620760988894E-15, 10.81579593036495446 ) ) ;
#40 = EDGE_LOOP ( 'NONE', ( #54 ) ) ;
#41 = ADVANCED_FACE ( 'NONE', ( #206, #104 ), #84, .T. ) ;
#42 = ORIENTED_EDGE ( 'NONE', *, *, #13, .F. ) ;
#43 = CIRCLE ( 'NONE', #117, 1.653999999999998360 ) ;
#44 = CARTESIAN_POINT ( 'NONE',  ( 3.776314965560475651E-14, 1.653999999999998582, 10.81579593036495623 ) ) ;
#45 = EDGE_CURVE ( 'NONE', #10, #10, #55, .T. ) ;
#46 = AXIS2_PLACEMENT_3D ( 'NONE', #90, #168, #27 ) ;
#47 = DIRECTION ( 'NONE',  ( -3.491481338843133355E-15, 1.049697256412017316E-16, -1.000000000000000000 ) ) ;
#48 = DESIGN_CONTEXT ( 'detailed design', #129, 'design' ) ;
#49 = ADVANCED_BREP_SHAPE_REPRESENTATION ( '321234', ( #57, #222, #155 ), #113 ) ;
#50 = PERSON_AND_ORGANIZATION_ROLE ( 'creator' ) ;
#51 = COORDINATED_UNIVERSAL_TIME_OFFSET ( 1, 0, .AHEAD. ) ;
#52 = ORIENTED_EDGE ( 'NONE', *, *, #193, .F. ) ;
#53 = ADVANCED_FACE ( 'NONE', ( #107 ), #191, .T. ) ;
#54 = ORIENTED_EDGE ( 'NONE', *, *, #28, .T. ) ;
#55 = CIRCLE ( 'NONE', #80, 1.199999999999997513 ) ;
#56 = FACE_BOUND ( 'NONE', #144, .T. ) ;
#57 = MANIFOLD_SOLID_BREP ( 'Corps-Déplacer/Copier1[1]', #17 ) ;
#58 = ORIENTED_EDGE ( 'NONE', *, *, #28, .F. ) ;
#59 =( LENGTH_UNIT ( ) NAMED_UNIT ( * ) SI_UNIT ( .MILLI., .METRE. ) );
#60 = VERTEX_POINT ( 'NONE', #76 ) ;
#61 = APPROVAL ( #140, 'UNSPECIFIED' ) ;
#62 = DIRECTION ( 'NONE',  ( -3.664998382197393967E-31, -1.000000000000000000, -1.049697256412017316E-16 ) ) ;
#63 = AXIS2_PLACEMENT_3D ( 'NONE', #4, #231, #123 ) ;
#64 = CARTESIAN_POINT ( 'NONE',  ( 2.433562493173664138E-13, -7.316389877191761450E-15, 69.70000000000001705 ) ) ;
#65 = DATE_TIME_ROLE ( 'creation_date' ) ;
#66 = CIRCLE ( 'NONE', #31, 1.653999999999999693 ) ;
#67 = ORIENTED_EDGE ( 'NONE', *, *, #11, .F. ) ;
#68 = APPROVAL_DATE_TIME ( #201, #153 ) ;
#69 = CARTESIAN_POINT ( 'NONE',  ( 2.444036937190193601E-13, -7.347880794884121511E-15, 70.00000000000000000 ) ) ;
#70 = AXIS2_PLACEMENT_3D ( 'NONE', #194, #233, #72 ) ;
#71 = CARTESIAN_POINT ( 'NONE',  ( 8.728703347107864943E-16, 1.369159897916347143E-16, 0.2500000000000008882 ) ) ;
#72 = DIRECTION ( 'NONE',  ( 0.0000000000000000000, 1.000000000000000000, 0.0000000000000000000 ) ) ;
#73 = CARTESIAN_POINT ( 'NONE',  ( 2.444036937190193601E-13, -7.347880794884121511E-15, 70.00000000000000000 ) ) ;
#74 = VERTEX_POINT ( 'NONE', #114 ) ;
#75 = DIRECTION ( 'NONE',  ( -1.912158493386911581E-30, 1.000000000000000000, -5.476639591665369838E-16 ) ) ;
#76 = CARTESIAN_POINT ( 'NONE',  ( 3.776314965560475651E-14, 1.653999999999998582, 10.81579593036495623 ) ) ;
#77 = APPROVAL_ROLE ( '' ) ;
#78 = CARTESIAN_POINT ( 'NONE',  ( 0.0000000000000000000, 0.0000000000000000000, 0.0000000000000000000 ) ) ;
#79 = PERSON_AND_ORGANIZATION ( #132, #185 ) ;
#80 = AXIS2_PLACEMENT_3D ( 'NONE', #69, #228, #209 ) ;
#81 = COORDINATED_UNIVERSAL_TIME_OFFSET ( 1, 0, .AHEAD. ) ;
#82 = COORDINATED_UNIVERSAL_TIME_OFFSET ( 1, 0, .AHEAD. ) ;
#83 = ORIENTED_EDGE ( 'NONE', *, *, #45, .T. ) ;
#84 = CONICAL_SURFACE ( 'NONE', #149, 1.509662432702592483, 0.5235987755982970393 ) ;
#85 = DIRECTION ( 'NONE',  ( -3.491481338843133355E-15, 1.049697256412017316E-16, -1.000000000000000000 ) ) ;
#86 = FACE_OUTER_BOUND ( 'NONE', #224, .T. ) ;
#87 = ORIENTED_EDGE ( 'NONE', *, *, #45, .F. ) ;
#88 = DIRECTION ( 'NONE',  ( -3.491481338843133355E-15, 1.049697256412017316E-16, -1.000000000000000000 ) ) ;
#89 = CONICAL_SURFACE ( 'NONE', #112, 1.499999999999997558, 0.7853981633974573828 ) ;
#90 = CARTESIAN_POINT ( 'NONE',  ( 3.776314965560476282E-14, 5.923421620760991261E-15, 10.81579593036495801 ) ) ;
#91 = CARTESIAN_POINT ( 'NONE',  ( -1.537993712738862773E-30, 1.509662432702592483, -4.404989067615813838E-16 ) ) ;
#92 = AXIS2_PLACEMENT_3D ( 'NONE', #39, #7, #3 ) ;
#93 = VERTEX_POINT ( 'NONE', #44 ) ;
#94 = FACE_OUTER_BOUND ( 'NONE', #204, .T. ) ;
#95 = AXIS2_PLACEMENT_3D ( 'NONE', #141, #183, #37 ) ;
#96 = CALENDAR_DATE ( 2021, 26, 11 ) ;
#97 = EDGE_LOOP ( 'NONE', ( #67 ) ) ;
#98 = DATE_AND_TIME ( #33, #237 ) ;
#99 = PRODUCT_DEFINITION_FORMATION_WITH_SPECIFIED_SOURCE ( 'ANY', '', #127, .NOT_KNOWN. ) ;
#100 = PERSON_AND_ORGANIZATION ( #132, #185 ) ;
#101 = CC_DESIGN_PERSON_AND_ORGANIZATION_ASSIGNMENT ( #180, #240, ( #99 ) ) ;
#102 = CIRCLE ( 'NONE', #210, 1.509662432702592483 ) ;
#103 = FACE_OUTER_BOUND ( 'NONE', #227, .T. ) ;
#104 = FACE_BOUND ( 'NONE', #207, .T. ) ;
#105 = CC_DESIGN_PERSON_AND_ORGANIZATION_ASSIGNMENT ( #182, #136, ( #165 ) ) ;
#106 = EDGE_LOOP ( 'NONE', ( #215 ) ) ;
#107 = FACE_OUTER_BOUND ( 'NONE', #122, .T. ) ;
#108 = CARTESIAN_POINT ( 'NONE',  ( 0.0000000000000000000, 0.0000000000000000000, 0.0000000000000000000 ) ) ;
#109 = APPLICATION_CONTEXT ( 'configuration controlled 3d designs of mechanical parts and assemblies' ) ;
#110 =( NAMED_UNIT ( * ) SI_UNIT ( $, .STERADIAN. ) SOLID_ANGLE_UNIT ( ) );
#111 = DIRECTION ( 'NONE',  ( 0.0000000000000000000, 1.000000000000000000, 0.0000000000000000000 ) ) ;
#112 = AXIS2_PLACEMENT_3D ( 'NONE', #126, #88, #230 ) ;
#113 =( GEOMETRIC_REPRESENTATION_CONTEXT ( 3 ) GLOBAL_UNCERTAINTY_ASSIGNED_CONTEXT ( ( #174 ) ) GLOBAL_UNIT_ASSIGNED_CONTEXT ( ( #59, #154, #110 ) ) REPRESENTATION_CONTEXT ( 'NONE', 'WORKASPACE' ) );
#114 = CARTESIAN_POINT ( 'NONE',  ( 8.728703347107833388E-16, 1.653999999999998582, 0.2499999999999999445 ) ) ;
#115 = DIRECTION ( 'NONE',  ( -3.491481338843133355E-15, -5.476639591665369838E-16, -1.000000000000000000 ) ) ;
#116 = MECHANICAL_CONTEXT ( 'NONE', #109, 'mechanical' ) ;
#117 = AXIS2_PLACEMENT_3D ( 'NONE', #71, #21, #145 ) ;
#118 = COORDINATED_UNIVERSAL_TIME_OFFSET ( 1, 0, .AHEAD. ) ;
#119 = ORIENTED_EDGE ( 'NONE', *, *, #193, .T. ) ;
#120 = APPROVAL_PERSON_ORGANIZATION ( #79, #153, #159 ) ;
#121 = APPROVAL_ROLE ( '' ) ;
#122 = EDGE_LOOP ( 'NONE', ( #119 ) ) ;
#123 = DIRECTION ( 'NONE',  ( 0.0000000000000000000, 1.000000000000000000, 0.0000000000000000000 ) ) ;
#124 = EDGE_LOOP ( 'NONE', ( #32 ) ) ;
#125 = PRODUCT_RELATED_PRODUCT_CATEGORY ( 'detail', '', ( #127 ) ) ;
#126 = CARTESIAN_POINT ( 'NONE',  ( 2.433562493173664138E-13, -7.316389877191761450E-15, 69.70000000000001705 ) ) ;
#127 = PRODUCT ( '321234', '321234', '', ( #116 ) ) ;
#128 = DIRECTION ( 'NONE',  ( -3.491481338843133355E-15, -5.476639591665369838E-16, -1.000000000000000000 ) ) ;
#129 = APPLICATION_CONTEXT ( 'configuration controlled 3d designs of mechanical parts and assemblies' ) ;
#130 = PLANE ( 'NONE',  #92 ) ;
#131 = DIRECTION ( 'NONE',  ( 0.0000000000000000000, 1.000000000000000000, 0.0000000000000000000 ) ) ;
#132 = PERSON ( 'UNSPECIFIED', 'UNSPECIFIED', 'UNSPECIFIED', ('UNSPECIFIED'), ('UNSPECIFIED'), ('UNSPECIFIED') ) ;
#133 = PLANE ( 'NONE',  #137 ) ;
#134 = LOCAL_TIME ( 14, 1, 39.00000000000000000, #51 ) ;
#135 = PERSON_AND_ORGANIZATION ( #132, #185 ) ;
#136 = PERSON_AND_ORGANIZATION_ROLE ( 'classification_officer' ) ;
#137 = AXIS2_PLACEMENT_3D ( 'NONE', #91, #211, #75 ) ;
#138 = DATE_AND_TIME ( #96, #158 ) ;
#139 = APPROVAL_STATUS ( 'not_yet_approved' ) ;
#140 = APPROVAL_STATUS ( 'not_yet_approved' ) ;
#141 = CARTESIAN_POINT ( 'NONE',  ( 3.776314965560475020E-14, 1.653999999999998582, 10.81579593036495446 ) ) ;
#142 = ADVANCED_FACE ( 'NONE', ( #20, #103 ), #187, .T. ) ;
#143 = CIRCLE ( 'NONE', #46, 1.653999999999992809 ) ;
#144 = EDGE_LOOP ( 'NONE', ( #83 ) ) ;
#145 = DIRECTION ( 'NONE',  ( -1.863051941366130843E-30, 1.000000000000000000, -5.571776581696974912E-16 ) ) ;
#146 = PRODUCT_DEFINITION ( 'UNKNOWN', '', #99, #48 ) ;
#147 = ORIENTED_EDGE ( 'NONE', *, *, #189, .F. ) ;
#148 = CARTESIAN_POINT ( 'NONE',  ( 2.444036937190193601E-13, 1.199999999999990186, 70.00000000000000000 ) ) ;
#149 = AXIS2_PLACEMENT_3D ( 'NONE', #188, #164, #167 ) ;
#150 = LOCAL_TIME ( 14, 1, 39.00000000000000000, #81 ) ;
#151 = DIRECTION ( 'NONE',  ( 3.491481338843133355E-15, -1.049697256412017316E-16, 1.000000000000000000 ) ) ;
#152 = CARTESIAN_POINT ( 'NONE',  ( 3.869445280877825814E-14, 1.499999999999991562, 11.08253175473057794 ) ) ;
#153 = APPROVAL ( #139, 'UNSPECIFIED' ) ;
#154 =( NAMED_UNIT ( * ) PLANE_ANGLE_UNIT ( ) SI_UNIT ( $, .RADIAN. ) );
#155 = AXIS2_PLACEMENT_3D ( 'NONE', #78, #243, #30 ) ;
#156 = PERSON_AND_ORGANIZATION ( #132, #185 ) ;
#157 = PERSON_AND_ORGANIZATION_ROLE ( 'design_owner' ) ;
#158 = LOCAL_TIME ( 14, 1, 39.00000000000000000, #118 ) ;
#159 = APPROVAL_ROLE ( '' ) ;
#160 = COORDINATED_UNIVERSAL_TIME_OFFSET ( 1, 0, .AHEAD. ) ;
#161 = CONICAL_SURFACE ( 'NONE', #70, 1.653999999999999693, 0.5235987755982951519 ) ;
#162 = DIRECTION ( 'NONE',  ( 3.664998382197393967E-31, 1.000000000000000000, 1.049697256412017316E-16 ) ) ;
#163 = DIRECTION ( 'NONE',  ( -1.912158493386911581E-30, 1.000000000000000000, -5.476639591665369838E-16 ) ) ;
#164 = DIRECTION ( 'NONE',  ( 3.491481338843133355E-15, 5.476639591665369838E-16, 1.000000000000000000 ) ) ;
#165 = SECURITY_CLASSIFICATION ( '', '', #239 ) ;
#166 = EDGE_LOOP ( 'NONE', ( #87 ) ) ;
#167 = DIRECTION ( 'NONE',  ( 1.912158493386911581E-30, -1.000000000000000000, 5.476639591665369838E-16 ) ) ;
#168 = DIRECTION ( 'NONE',  ( -3.491481338843133355E-15, -5.476639591665369838E-16, -1.000000000000000000 ) ) ;
#169 = CARTESIAN_POINT ( 'NONE',  ( 2.433562493173664138E-13, 1.499999999999990230, 69.70000000000001705 ) ) ;
#170 = FACE_OUTER_BOUND ( 'NONE', #97, .T. ) ;
#171 = DIRECTION ( 'NONE',  ( -1.912158493386911581E-30, 1.000000000000000000, -5.476639591665369838E-16 ) ) ;
#172 = CIRCLE ( 'NONE', #179, 1.499999999999997558 ) ;
#173 = ADVANCED_FACE ( 'NONE', ( #29 ), #216, .T. ) ;
#174 = UNCERTAINTY_MEASURE_WITH_UNIT (LENGTH_MEASURE( 1.000000000000000082E-05 ), #59, 'distance_accuracy_value', 'NONE');
#175 = APPROVAL_DATE_TIME ( #14, #229 ) ;
#176 = DATE_AND_TIME ( #12, #214 ) ;
#177 = EDGE_LOOP ( 'NONE', ( #190 ) ) ;
#178 = CALENDAR_DATE ( 2021, 26, 11 ) ;
#179 = AXIS2_PLACEMENT_3D ( 'NONE', #64, #213, #111 ) ;
#180 = PERSON_AND_ORGANIZATION ( #132, #185 ) ;
#181 = CC_DESIGN_PERSON_AND_ORGANIZATION_ASSIGNMENT ( #156, #199, ( #99 ) ) ;
#182 = PERSON_AND_ORGANIZATION ( #132, #185 ) ;
#183 = DIRECTION ( 'NONE',  ( -3.491481338843133355E-15, 1.049697256412017316E-16, -1.000000000000000000 ) ) ;
#184 = CC_DESIGN_PERSON_AND_ORGANIZATION_ASSIGNMENT ( #203, #157, ( #127 ) ) ;
#185 = ORGANIZATION ( 'UNSPECIFIED', 'UNSPECIFIED', '' ) ;
#186 = CC_DESIGN_APPROVAL ( #153, ( #165 ) ) ;
#187 = CYLINDRICAL_SURFACE ( 'NONE', #2, 1.499999999999995337 ) ;
#188 = CARTESIAN_POINT ( 'NONE',  ( 2.697440260201092968E-30, 4.231129051391204764E-31, 7.725775962746122256E-16 ) ) ;
#189 = EDGE_CURVE ( 'NONE', #60, #60, #143, .T. ) ;
#190 = ORIENTED_EDGE ( 'NONE', *, *, #200, .T. ) ;
#191 = PLANE ( 'NONE',  #95 ) ;
#192 = FACE_OUTER_BOUND ( 'NONE', #40, .T. ) ;
#193 = EDGE_CURVE ( 'NONE', #93, #93, #66, .T. ) ;
#194 = CARTESIAN_POINT ( 'NONE',  ( 3.776314965560475651E-14, -1.135331131401635676E-15, 10.81579593036495623 ) ) ;
#195 = VERTEX_POINT ( 'NONE', #152 ) ;
#196 = FACE_OUTER_BOUND ( 'NONE', #24, .T. ) ;
#197 = ADVANCED_FACE ( 'NONE', ( #94, #170 ), #232, .T. ) ;
#198 = CALENDAR_DATE ( 2021, 26, 11 ) ;
#199 = PERSON_AND_ORGANIZATION_ROLE ( 'design_supplier' ) ;
#200 = EDGE_CURVE ( 'NONE', #236, #236, #172, .T. ) ;
#201 = DATE_AND_TIME ( #178, #150 ) ;
#202 = CC_DESIGN_APPROVAL ( #61, ( #146 ) ) ;
#203 = PERSON_AND_ORGANIZATION ( #132, #185 ) ;
#204 = EDGE_LOOP ( 'NONE', ( #208 ) ) ;
#205 = CC_DESIGN_DATE_AND_TIME_ASSIGNMENT ( #98, #223, ( #165 ) ) ;
#206 = FACE_OUTER_BOUND ( 'NONE', #106, .T. ) ;
#207 = EDGE_LOOP ( 'NONE', ( #58 ) ) ;
#208 = ORIENTED_EDGE ( 'NONE', *, *, #189, .T. ) ;
#209 = DIRECTION ( 'NONE',  ( 0.0000000000000000000, 1.000000000000000000, 0.0000000000000000000 ) ) ;
#210 = AXIS2_PLACEMENT_3D ( 'NONE', #226, #128, #163 ) ;
#211 = DIRECTION ( 'NONE',  ( -3.491481338843133355E-15, -5.476639591665369838E-16, -1.000000000000000000 ) ) ;
#212 = CARTESIAN_POINT ( 'NONE',  ( -1.892735826383161356E-31, 1.509662432702592483, -5.421010862427522170E-17 ) ) ;
#213 = DIRECTION ( 'NONE',  ( -3.491481338843133355E-15, 1.049697256412017316E-16, -1.000000000000000000 ) ) ;
#214 = LOCAL_TIME ( 14, 1, 39.00000000000000000, #160 ) ;
#215 = ORIENTED_EDGE ( 'NONE', *, *, #11, .T. ) ;
#216 = PLANE ( 'NONE',  #38 ) ;
#217 = APPROVAL_DATE_TIME ( #138, #61 ) ;
#218 = SHAPE_DEFINITION_REPRESENTATION ( #25, #49 ) ;
#219 = CIRCLE ( 'NONE', #63, 1.499999999999992673 ) ;
#220 = PERSON_AND_ORGANIZATION ( #132, #185 ) ;
#221 = ADVANCED_FACE ( 'NONE', ( #192 ), #133, .T. ) ;
#222 = MANIFOLD_SOLID_BREP ( 'Corps-Déplacer/Copier1[2]', #225 ) ;
#223 = DATE_TIME_ROLE ( 'classification_date' ) ;
#224 = EDGE_LOOP ( 'NONE', ( #35 ) ) ;
#225 = CLOSED_SHELL ( 'NONE', ( #5, #197, #41, #221 ) ) ;
#226 = CARTESIAN_POINT ( 'NONE',  ( 2.697440260201092968E-30, 4.231129051391204764E-31, 7.725775962746122256E-16 ) ) ;
#227 = EDGE_LOOP ( 'NONE', ( #42 ) ) ;
#228 = DIRECTION ( 'NONE',  ( -3.491481338843133355E-15, 1.049697256412017316E-16, -1.000000000000000000 ) ) ;
#229 = APPROVAL ( #15, 'UNSPECIFIED' ) ;
#230 = DIRECTION ( 'NONE',  ( 0.0000000000000000000, 1.000000000000000000, 0.0000000000000000000 ) ) ;
#231 = DIRECTION ( 'NONE',  ( -3.491481338843133355E-15, 1.049697256412017316E-16, -1.000000000000000000 ) ) ;
#232 = CYLINDRICAL_SURFACE ( 'NONE', #242, 1.653999999999995474 ) ;
#233 = DIRECTION ( 'NONE',  ( -3.491481338843133355E-15, 1.049697256412017316E-16, -1.000000000000000000 ) ) ;
#234 = VERTEX_POINT ( 'NONE', #212 ) ;
#235 = ADVANCED_FACE ( 'NONE', ( #9, #196 ), #161, .T. ) ;
#236 = VERTEX_POINT ( 'NONE', #169 ) ;
#237 = LOCAL_TIME ( 14, 1, 39.00000000000000000, #82 ) ;
#238 = CARTESIAN_POINT ( 'NONE',  ( 3.776314965560475651E-14, -1.135331131401635676E-15, 10.81579593036495623 ) ) ;
#239 = SECURITY_CLASSIFICATION_LEVEL ( 'unclassified' ) ;
#240 = PERSON_AND_ORGANIZATION_ROLE ( 'creator' ) ;
#241 = CC_DESIGN_PERSON_AND_ORGANIZATION_ASSIGNMENT ( #220, #50, ( #146 ) ) ;
#242 = AXIS2_PLACEMENT_3D ( 'NONE', #108, #115, #171 ) ;
#243 = DIRECTION ( 'NONE',  ( 0.0000000000000000000, 0.0000000000000000000, 1.000000000000000000 ) ) ;
ENDSEC;
END-ISO-10303-21;
