ISO-10303-21;
HEADER;
FILE_DESCRIPTION (( 'STEP AP203' ),
    '1' );
FILE_NAME ('321233.step',
    '2021-11-26T13:01:38',
    ( '' ),
    ( '' ),
    'SwSTEP 2.0',
    'SolidWorks 2019',
    '' );
FILE_SCHEMA (( 'CONFIG_CONTROL_DESIGN' ));
ENDSEC;

DATA;
#1 = PLANE ( 'NONE',  #156 ) ;
#2 = ADVANCED_FACE ( 'NONE', ( #170 ), #38, .T. ) ;
#3 = DIRECTION ( 'NONE',  ( -3.491481338843133355E-15, 1.049697256412017316E-16, -1.000000000000000000 ) ) ;
#4 = CC_DESIGN_APPROVAL ( #225, ( #202 ) ) ;
#5 = DIRECTION ( 'NONE',  ( -3.491481338843133355E-15, -5.470298340544508742E-16, -1.000000000000000000 ) ) ;
#6 = FACE_OUTER_BOUND ( 'NONE', #66, .T. ) ;
#7 = CARTESIAN_POINT ( 'NONE',  ( 0.0000000000000000000, 0.0000000000000000000, 0.0000000000000000000 ) ) ;
#8 = AXIS2_PLACEMENT_3D ( 'NONE', #7, #130, #125 ) ;
#9 = PERSON_AND_ORGANIZATION ( #143, #83 ) ;
#10 = APPROVAL_PERSON_ORGANIZATION ( #85, #225, #159 ) ;
#11 = DATE_AND_TIME ( #98, #96 ) ;
#12 = VERTEX_POINT ( 'NONE', #29 ) ;
#13 = CARTESIAN_POINT ( 'NONE',  ( 0.0000000000000000000, 0.0000000000000000000, 0.0000000000000000000 ) ) ;
#14 = EDGE_LOOP ( 'NONE', ( #104 ) ) ;
#15 = PERSON_AND_ORGANIZATION ( #143, #83 ) ;
#16 = CONICAL_SURFACE ( 'NONE', #135, 1.648999999999999799, 0.5235987755982941527 ) ;
#17 = PERSON_AND_ORGANIZATION_ROLE ( 'classification_officer' ) ;
#18 = EDGE_LOOP ( 'NONE', ( #41 ) ) ;
#19 = AXIS2_PLACEMENT_3D ( 'NONE', #187, #5, #114 ) ;
#20 = CC_DESIGN_PERSON_AND_ORGANIZATION_ASSIGNMENT ( #34, #222, ( #202 ) ) ;
#21 = FACE_OUTER_BOUND ( 'NONE', #145, .T. ) ;
#22 = FACE_BOUND ( 'NONE', #87, .T. ) ;
#23 = CARTESIAN_POINT ( 'NONE',  ( 3.779338677096751893E-14, -1.136240195891971203E-15, 10.82445618440280022 ) ) ;
#24 = DIRECTION ( 'NONE',  ( -3.491481338843133355E-15, 1.049697256412017316E-16, -1.000000000000000000 ) ) ;
#25 = ADVANCED_FACE ( 'NONE', ( #22, #6 ), #212, .T. ) ;
#26 = FACE_OUTER_BOUND ( 'NONE', #178, .T. ) ;
#27 = AXIS2_PLACEMENT_3D ( 'NONE', #73, #148, #167 ) ;
#28 = AXIS2_PLACEMENT_3D ( 'NONE', #164, #146, #230 ) ;
#29 = CARTESIAN_POINT ( 'NONE',  ( -1.892735826383161356E-31, 1.504662432702592589, -5.421010862427522170E-17 ) ) ;
#30 =( NAMED_UNIT ( * ) PLANE_ANGLE_UNIT ( ) SI_UNIT ( $, .RADIAN. ) );
#31 = APPLICATION_CONTEXT ( 'configuration controlled 3d designs of mechanical parts and assemblies' ) ;
#32 = ORIENTED_EDGE ( 'NONE', *, *, #213, .T. ) ;
#33 = ORIENTED_EDGE ( 'NONE', *, *, #195, .F. ) ;
#34 = PERSON_AND_ORGANIZATION ( #143, #83 ) ;
#35 = AXIS2_PLACEMENT_3D ( 'NONE', #152, #55, #201 ) ;
#36 = SECURITY_CLASSIFICATION_LEVEL ( 'unclassified' ) ;
#37 = ORIENTED_EDGE ( 'NONE', *, *, #123, .F. ) ;
#38 = PLANE ( 'NONE',  #97 ) ;
#39 = FACE_BOUND ( 'NONE', #53, .T. ) ;
#40 = DIRECTION ( 'NONE',  ( 3.491481338843133355E-15, 5.470298340544508742E-16, 1.000000000000000000 ) ) ;
#41 = ORIENTED_EDGE ( 'NONE', *, *, #213, .F. ) ;
#42 = PRODUCT ( '321233', '321233', '', ( #100 ) ) ;
#43 = CYLINDRICAL_SURFACE ( 'NONE', #8, 1.648999999999995802 ) ;
#44 = DIRECTION ( 'NONE',  ( -3.491481338843133355E-15, -5.470298340544508742E-16, -1.000000000000000000 ) ) ;
#45 = ADVANCED_FACE ( 'NONE', ( #93, #60 ), #63, .T. ) ;
#46 = COORDINATED_UNIVERSAL_TIME_OFFSET ( 1, 0, .AHEAD. ) ;
#47 = LOCAL_TIME ( 14, 1, 38.00000000000000000, #240 ) ;
#48 = VERTEX_POINT ( 'NONE', #117 ) ;
#49 = CIRCLE ( 'NONE', #91, 1.499999999999997558 ) ;
#50 = CARTESIAN_POINT ( 'NONE',  ( 2.433562493173664138E-13, 1.499999999999990230, 69.70000000000001705 ) ) ;
#51 = CLOSED_SHELL ( 'NONE', ( #223, #25, #126, #200, #151 ) ) ;
#52 = AXIS2_PLACEMENT_3D ( 'NONE', #203, #24, #110 ) ;
#53 = EDGE_LOOP ( 'NONE', ( #120 ) ) ;
#54 = EDGE_LOOP ( 'NONE', ( #163 ) ) ;
#55 = DIRECTION ( 'NONE',  ( 3.491481338843133355E-15, 5.470298340544508742E-16, 1.000000000000000000 ) ) ;
#56 = PRODUCT_DEFINITION_SHAPE ( 'NONE', 'NONE',  #132 ) ;
#57 = CIRCLE ( 'NONE', #27, 1.648999999999999799 ) ;
#58 = DIRECTION ( 'NONE',  ( -3.491481338843133355E-15, 1.049697256412017316E-16, -1.000000000000000000 ) ) ;
#59 = FACE_OUTER_BOUND ( 'NONE', #69, .T. ) ;
#60 = FACE_BOUND ( 'NONE', #142, .T. ) ;
#61 = APPLICATION_PROTOCOL_DEFINITION ( 'international standard', 'config_control_design', 1994, #31 ) ;
#62 = CARTESIAN_POINT ( 'NONE',  ( 2.684548090947318729E-30, 4.206031062989115740E-31, 7.688851322449904031E-16 ) ) ;
#63 = CONICAL_SURFACE ( 'NONE', #35, 1.504662432702592589, 0.5235987755982970393 ) ;
#64 = DIRECTION ( 'NONE',  ( -3.664998382197393967E-31, -1.000000000000000000, -1.049697256412017316E-16 ) ) ;
#65 = CC_DESIGN_APPROVAL ( #172, ( #132 ) ) ;
#66 = EDGE_LOOP ( 'NONE', ( #33 ) ) ;
#67 = CC_DESIGN_DATE_AND_TIME_ASSIGNMENT ( #11, #79, ( #132 ) ) ;
#68 = DATE_AND_TIME ( #70, #235 ) ;
#69 = EDGE_LOOP ( 'NONE', ( #122 ) ) ;
#70 = CALENDAR_DATE ( 2021, 26, 11 ) ;
#71 = APPROVAL ( #180, 'UNSPECIFIED' ) ;
#72 = CARTESIAN_POINT ( 'NONE',  ( 3.779338677096752524E-14, 1.648999999999998689, 10.82445618440280199 ) ) ;
#73 = CARTESIAN_POINT ( 'NONE',  ( 3.779338677096751893E-14, -1.136240195891971203E-15, 10.82445618440280022 ) ) ;
#74 = CC_DESIGN_SECURITY_CLASSIFICATION ( #181, ( #202 ) ) ;
#75 = DIRECTION ( 'NONE',  ( 0.0000000000000000000, 1.000000000000000000, 0.0000000000000000000 ) ) ;
#76 = CARTESIAN_POINT ( 'NONE',  ( 2.433562493173664138E-13, -7.316389877191761450E-15, 69.70000000000001705 ) ) ;
#77 = CARTESIAN_POINT ( 'NONE',  ( -1.531547628111975478E-30, 1.504662432702592589, -4.386526747467704232E-16 ) ) ;
#78 = CALENDAR_DATE ( 2021, 26, 11 ) ;
#79 = DATE_TIME_ROLE ( 'creation_date' ) ;
#80 =( LENGTH_UNIT ( ) NAMED_UNIT ( * ) SI_UNIT ( .MILLI., .METRE. ) );
#81 = PERSON_AND_ORGANIZATION ( #143, #83 ) ;
#82 = ADVANCED_FACE ( 'NONE', ( #206 ), #1, .T. ) ;
#83 = ORGANIZATION ( 'UNSPECIFIED', 'UNSPECIFIED', '' ) ;
#84 = EDGE_LOOP ( 'NONE', ( #108 ) ) ;
#85 = PERSON_AND_ORGANIZATION ( #143, #83 ) ;
#86 = COORDINATED_UNIVERSAL_TIME_OFFSET ( 1, 0, .AHEAD. ) ;
#87 = EDGE_LOOP ( 'NONE', ( #241 ) ) ;
#88 = DIRECTION ( 'NONE',  ( -3.491481338843133355E-15, 1.049697256412017316E-16, -1.000000000000000000 ) ) ;
#89 = DIRECTION ( 'NONE',  ( -3.491481338843133355E-15, 1.049697256412017316E-16, -1.000000000000000000 ) ) ;
#90 = DIRECTION ( 'NONE',  ( -3.491481338843133355E-15, 1.049697256412017316E-16, -1.000000000000000000 ) ) ;
#91 = AXIS2_PLACEMENT_3D ( 'NONE', #185, #3, #207 ) ;
#92 = MANIFOLD_SOLID_BREP ( 'Corps-Déplacer/Copier1[2]', #154 ) ;
#93 = FACE_OUTER_BOUND ( 'NONE', #54, .T. ) ;
#94 = FACE_OUTER_BOUND ( 'NONE', #14, .T. ) ;
#95 = VERTEX_POINT ( 'NONE', #118 ) ;
#96 = LOCAL_TIME ( 14, 1, 38.00000000000000000, #46 ) ;
#97 = AXIS2_PLACEMENT_3D ( 'NONE', #77, #224, #231 ) ;
#98 = CALENDAR_DATE ( 2021, 26, 11 ) ;
#99 = VERTEX_POINT ( 'NONE', #119 ) ;
#100 = MECHANICAL_CONTEXT ( 'NONE', #176, 'mechanical' ) ;
#101 = CARTESIAN_POINT ( 'NONE',  ( 2.444036937190193601E-13, 1.199999999999990186, 70.00000000000000000 ) ) ;
#102 = CC_DESIGN_PERSON_AND_ORGANIZATION_ASSIGNMENT ( #133, #210, ( #132 ) ) ;
#103 = APPROVAL_DATE_TIME ( #217, #225 ) ;
#104 = ORIENTED_EDGE ( 'NONE', *, *, #205, .T. ) ;
#105 = CIRCLE ( 'NONE', #52, 1.199999999999997513 ) ;
#106 = UNCERTAINTY_MEASURE_WITH_UNIT (LENGTH_MEASURE( 1.000000000000000082E-05 ), #80, 'distance_accuracy_value', 'NONE');
#107 = EDGE_LOOP ( 'NONE', ( #221 ) ) ;
#108 = ORIENTED_EDGE ( 'NONE', *, *, #232, .T. ) ;
#109 = CIRCLE ( 'NONE', #204, 1.499999999999992673 ) ;
#110 = DIRECTION ( 'NONE',  ( 0.0000000000000000000, 1.000000000000000000, 0.0000000000000000000 ) ) ;
#111 = APPROVAL_PERSON_ORGANIZATION ( #81, #172, #157 ) ;
#112 = EDGE_CURVE ( 'NONE', #48, #48, #127, .T. ) ;
#113 = CARTESIAN_POINT ( 'NONE',  ( 3.869445280877825814E-14, -1.163330317703974832E-15, 11.08253175473057794 ) ) ;
#114 = DIRECTION ( 'NONE',  ( -3.737401953935222171E-30, 1.000000000000000000, -1.051985127942276889E-15 ) ) ;
#115 = DIRECTION ( 'NONE',  ( -3.491481338843133355E-15, 1.049697256412017316E-16, -1.000000000000000000 ) ) ;
#116 = APPROVAL_STATUS ( 'not_yet_approved' ) ;
#117 = CARTESIAN_POINT ( 'NONE',  ( 8.728703347107833388E-16, 1.648999999999998689, 0.2499999999999999445 ) ) ;
#118 = CARTESIAN_POINT ( 'NONE',  ( 3.779338677096751893E-14, 1.648999999999998689, 10.82445618440280022 ) ) ;
#119 = CARTESIAN_POINT ( 'NONE',  ( 3.779338677096751893E-14, 1.648999999999998689, 10.82445618440280022 ) ) ;
#120 = ORIENTED_EDGE ( 'NONE', *, *, #123, .T. ) ;
#121 = APPROVAL_ROLE ( '' ) ;
#122 = ORIENTED_EDGE ( 'NONE', *, *, #112, .F. ) ;
#123 = EDGE_CURVE ( 'NONE', #211, #211, #109, .T. ) ;
#124 = APPROVAL_DATE_TIME ( #220, #71 ) ;
#125 = DIRECTION ( 'NONE',  ( -1.909944457391570851E-30, 1.000000000000000000, -5.470298340544508742E-16 ) ) ;
#126 = ADVANCED_FACE ( 'NONE', ( #26, #150 ), #229, .T. ) ;
#127 = CIRCLE ( 'NONE', #28, 1.648999999999998467 ) ;
#128 = PLANE ( 'NONE',  #147 ) ;
#129 = DIRECTION ( 'NONE',  ( 0.0000000000000000000, 1.000000000000000000, 0.0000000000000000000 ) ) ;
#130 = DIRECTION ( 'NONE',  ( -3.491481338843133355E-15, -5.470298340544508742E-16, -1.000000000000000000 ) ) ;
#131 = CARTESIAN_POINT ( 'NONE',  ( 3.779338677096752524E-14, 5.921300470283538806E-15, 10.82445618440280199 ) ) ;
#132 = PRODUCT_DEFINITION ( 'UNKNOWN', '', #202, #218 ) ;
#133 = PERSON_AND_ORGANIZATION ( #143, #83 ) ;
#134 = PRODUCT_RELATED_PRODUCT_CATEGORY ( 'detail', '', ( #42 ) ) ;
#135 = AXIS2_PLACEMENT_3D ( 'NONE', #23, #89, #165 ) ;
#136 = CARTESIAN_POINT ( 'NONE',  ( 2.444036937190193601E-13, -7.347880794884121511E-15, 70.00000000000000000 ) ) ;
#137 = DATE_AND_TIME ( #78, #226 ) ;
#138 = CALENDAR_DATE ( 2021, 26, 11 ) ;
#139 = AXIS2_PLACEMENT_3D ( 'NONE', #62, #44, #155 ) ;
#140 =( GEOMETRIC_REPRESENTATION_CONTEXT ( 3 ) GLOBAL_UNCERTAINTY_ASSIGNED_CONTEXT ( ( #106 ) ) GLOBAL_UNIT_ASSIGNED_CONTEXT ( ( #80, #30, #234 ) ) REPRESENTATION_CONTEXT ( 'NONE', 'WORKASPACE' ) );
#141 = DATE_TIME_ROLE ( 'classification_date' ) ;
#142 = EDGE_LOOP ( 'NONE', ( #184 ) ) ;
#143 = PERSON ( 'UNSPECIFIED', 'UNSPECIFIED', 'UNSPECIFIED', ('UNSPECIFIED'), ('UNSPECIFIED'), ('UNSPECIFIED') ) ;
#144 = PERSON_AND_ORGANIZATION ( #143, #83 ) ;
#145 = EDGE_LOOP ( 'NONE', ( #196 ) ) ;
#146 = DIRECTION ( 'NONE',  ( -3.491481338843133355E-15, -5.470298340544508742E-16, -1.000000000000000000 ) ) ;
#147 = AXIS2_PLACEMENT_3D ( 'NONE', #72, #90, #153 ) ;
#148 = DIRECTION ( 'NONE',  ( -3.491481338843133355E-15, 1.049697256412017316E-16, -1.000000000000000000 ) ) ;
#149 = AXIS2_PLACEMENT_3D ( 'NONE', #208, #88, #188 ) ;
#150 = FACE_OUTER_BOUND ( 'NONE', #183, .T. ) ;
#151 = ADVANCED_FACE ( 'NONE', ( #94 ), #128, .T. ) ;
#152 = CARTESIAN_POINT ( 'NONE',  ( 2.684548090947318729E-30, 4.206031062989115740E-31, 7.688851322449904031E-16 ) ) ;
#153 = DIRECTION ( 'NONE',  ( 3.664998382197393967E-31, 1.000000000000000000, 1.049697256412017316E-16 ) ) ;
#154 = CLOSED_SHELL ( 'NONE', ( #82, #177, #45, #2 ) ) ;
#155 = DIRECTION ( 'NONE',  ( -1.909944457391571202E-30, 1.000000000000000000, -5.470298340544508742E-16 ) ) ;
#156 = AXIS2_PLACEMENT_3D ( 'NONE', #131, #40, #227 ) ;
#157 = APPROVAL_ROLE ( '' ) ;
#158 = VERTEX_POINT ( 'NONE', #50 ) ;
#159 = APPROVAL_ROLE ( '' ) ;
#160 = CC_DESIGN_PERSON_AND_ORGANIZATION_ASSIGNMENT ( #162, #17, ( #181 ) ) ;
#161 = CALENDAR_DATE ( 2021, 26, 11 ) ;
#162 = PERSON_AND_ORGANIZATION ( #143, #83 ) ;
#163 = ORIENTED_EDGE ( 'NONE', *, *, #112, .T. ) ;
#164 = CARTESIAN_POINT ( 'NONE',  ( 8.728703347107864943E-16, 1.367574585136132116E-16, 0.2500000000000008882 ) ) ;
#165 = DIRECTION ( 'NONE',  ( 0.0000000000000000000, 1.000000000000000000, 0.0000000000000000000 ) ) ;
#166 = LOCAL_TIME ( 14, 1, 38.00000000000000000, #86 ) ;
#167 = DIRECTION ( 'NONE',  ( 0.0000000000000000000, 1.000000000000000000, 0.0000000000000000000 ) ) ;
#168 = CC_DESIGN_PERSON_AND_ORGANIZATION_ASSIGNMENT ( #15, #242, ( #202 ) ) ;
#169 = MANIFOLD_SOLID_BREP ( 'Corps-Déplacer/Copier1[1]', #51 ) ;
#170 = FACE_OUTER_BOUND ( 'NONE', #84, .T. ) ;
#171 = VERTEX_POINT ( 'NONE', #101 ) ;
#172 = APPROVAL ( #116, 'UNSPECIFIED' ) ;
#173 = CIRCLE ( 'NONE', #139, 1.504662432702592589 ) ;
#174 = APPLICATION_PROTOCOL_DEFINITION ( 'international standard', 'config_control_design', 1994, #176 ) ;
#175 = DIRECTION ( 'NONE',  ( 3.491481338843133355E-15, -1.049697256412017316E-16, 1.000000000000000000 ) ) ;
#176 = APPLICATION_CONTEXT ( 'configuration controlled 3d designs of mechanical parts and assemblies' ) ;
#177 = ADVANCED_FACE ( 'NONE', ( #186, #59 ), #43, .T. ) ;
#178 = EDGE_LOOP ( 'NONE', ( #238 ) ) ;
#179 = APPROVAL_PERSON_ORGANIZATION ( #144, #71, #121 ) ;
#180 = APPROVAL_STATUS ( 'not_yet_approved' ) ;
#181 = SECURITY_CLASSIFICATION ( '', '', #36 ) ;
#182 = APPROVAL_STATUS ( 'not_yet_approved' ) ;
#183 = EDGE_LOOP ( 'NONE', ( #37 ) ) ;
#184 = ORIENTED_EDGE ( 'NONE', *, *, #232, .F. ) ;
#185 = CARTESIAN_POINT ( 'NONE',  ( 2.433562493173664138E-13, -7.316389877191761450E-15, 69.70000000000001705 ) ) ;
#186 = FACE_OUTER_BOUND ( 'NONE', #197, .T. ) ;
#187 = CARTESIAN_POINT ( 'NONE',  ( 3.779338677096752524E-14, 5.921300470283538806E-15, 10.82445618440280199 ) ) ;
#188 = DIRECTION ( 'NONE',  ( 3.664998382197393967E-31, 1.000000000000000000, 1.049697256412017316E-16 ) ) ;
#189 = EDGE_CURVE ( 'NONE', #171, #171, #105, .T. ) ;
#190 = APPROVAL_DATE_TIME ( #137, #172 ) ;
#191 = COORDINATED_UNIVERSAL_TIME_OFFSET ( 1, 0, .AHEAD. ) ;
#192 = AXIS2_PLACEMENT_3D ( 'NONE', #136, #175, #64 ) ;
#193 = CARTESIAN_POINT ( 'NONE',  ( 3.869445280877825814E-14, 1.499999999999991562, 11.08253175473057794 ) ) ;
#194 = DIRECTION ( 'NONE',  ( 0.0000000000000000000, 0.0000000000000000000, 1.000000000000000000 ) ) ;
#195 = EDGE_CURVE ( 'NONE', #158, #158, #49, .T. ) ;
#196 = ORIENTED_EDGE ( 'NONE', *, *, #205, .F. ) ;
#197 = EDGE_LOOP ( 'NONE', ( #32 ) ) ;
#198 = ADVANCED_BREP_SHAPE_REPRESENTATION ( '321233', ( #169, #92, #216 ), #140 ) ;
#199 = CC_DESIGN_APPROVAL ( #71, ( #181 ) ) ;
#200 = ADVANCED_FACE ( 'NONE', ( #39, #21 ), #16, .T. ) ;
#201 = DIRECTION ( 'NONE',  ( 1.909944457391571202E-30, -1.000000000000000000, 5.470298340544508742E-16 ) ) ;
#202 = PRODUCT_DEFINITION_FORMATION_WITH_SPECIFIED_SOURCE ( 'ANY', '', #42, .NOT_KNOWN. ) ;
#203 = CARTESIAN_POINT ( 'NONE',  ( 2.444036937190193601E-13, -7.347880794884121511E-15, 70.00000000000000000 ) ) ;
#204 = AXIS2_PLACEMENT_3D ( 'NONE', #113, #115, #75 ) ;
#205 = EDGE_CURVE ( 'NONE', #95, #95, #57, .T. ) ;
#206 = FACE_OUTER_BOUND ( 'NONE', #18, .T. ) ;
#207 = DIRECTION ( 'NONE',  ( 0.0000000000000000000, 1.000000000000000000, 0.0000000000000000000 ) ) ;
#208 = CARTESIAN_POINT ( 'NONE',  ( 0.0000000000000000000, 0.0000000000000000000, 0.0000000000000000000 ) ) ;
#209 = PERSON_AND_ORGANIZATION_ROLE ( 'design_owner' ) ;
#210 = PERSON_AND_ORGANIZATION_ROLE ( 'creator' ) ;
#211 = VERTEX_POINT ( 'NONE', #193 ) ;
#212 = CONICAL_SURFACE ( 'NONE', #239, 1.499999999999997558, 0.7853981633974573828 ) ;
#213 = EDGE_CURVE ( 'NONE', #99, #99, #228, .T. ) ;
#214 = FACE_OUTER_BOUND ( 'NONE', #107, .T. ) ;
#215 = CC_DESIGN_DATE_AND_TIME_ASSIGNMENT ( #68, #141, ( #181 ) ) ;
#216 = AXIS2_PLACEMENT_3D ( 'NONE', #13, #194, #236 ) ;
#217 = DATE_AND_TIME ( #161, #47 ) ;
#218 = DESIGN_CONTEXT ( 'detailed design', #31, 'design' ) ;
#219 = SHAPE_DEFINITION_REPRESENTATION ( #56, #198 ) ;
#220 = DATE_AND_TIME ( #138, #166 ) ;
#221 = ORIENTED_EDGE ( 'NONE', *, *, #189, .F. ) ;
#222 = PERSON_AND_ORGANIZATION_ROLE ( 'creator' ) ;
#223 = ADVANCED_FACE ( 'NONE', ( #214 ), #233, .T. ) ;
#224 = DIRECTION ( 'NONE',  ( -3.491481338843133355E-15, -5.470298340544508742E-16, -1.000000000000000000 ) ) ;
#225 = APPROVAL ( #182, 'UNSPECIFIED' ) ;
#226 = LOCAL_TIME ( 14, 1, 38.00000000000000000, #191 ) ;
#227 = DIRECTION ( 'NONE',  ( 1.909944457391571202E-30, -1.000000000000000000, 5.470298340544508742E-16 ) ) ;
#228 = CIRCLE ( 'NONE', #19, 1.648999999999992916 ) ;
#229 = CYLINDRICAL_SURFACE ( 'NONE', #149, 1.499999999999995337 ) ;
#230 = DIRECTION ( 'NONE',  ( -1.868700976967604780E-30, 1.000000000000000000, -5.588670992193326745E-16 ) ) ;
#231 = DIRECTION ( 'NONE',  ( -1.909944457391571202E-30, 1.000000000000000000, -5.470298340544508742E-16 ) ) ;
#232 = EDGE_CURVE ( 'NONE', #12, #12, #173, .T. ) ;
#233 = PLANE ( 'NONE',  #192 ) ;
#234 =( NAMED_UNIT ( * ) SI_UNIT ( $, .STERADIAN. ) SOLID_ANGLE_UNIT ( ) );
#235 = LOCAL_TIME ( 14, 1, 38.00000000000000000, #237 ) ;
#236 = DIRECTION ( 'NONE',  ( 1.000000000000000000, 0.0000000000000000000, 0.0000000000000000000 ) ) ;
#237 = COORDINATED_UNIVERSAL_TIME_OFFSET ( 1, 0, .AHEAD. ) ;
#238 = ORIENTED_EDGE ( 'NONE', *, *, #195, .T. ) ;
#239 = AXIS2_PLACEMENT_3D ( 'NONE', #76, #58, #129 ) ;
#240 = COORDINATED_UNIVERSAL_TIME_OFFSET ( 1, 0, .AHEAD. ) ;
#241 = ORIENTED_EDGE ( 'NONE', *, *, #189, .T. ) ;
#242 = PERSON_AND_ORGANIZATION_ROLE ( 'design_supplier' ) ;
#243 = CC_DESIGN_PERSON_AND_ORGANIZATION_ASSIGNMENT ( #9, #209, ( #42 ) ) ;
ENDSEC;
END-ISO-10303-21;
