ISO-10303-21;
HEADER;
FILE_DESCRIPTION (( 'STEP AP203' ),
    '1' );
FILE_NAME ('321232.step',
    '2021-11-26T13:01:38',
    ( '' ),
    ( '' ),
    'SwSTEP 2.0',
    'SolidWorks 2019',
    '' );
FILE_SCHEMA (( 'CONFIG_CONTROL_DESIGN' ));
ENDSEC;

DATA;
#1 = CARTESIAN_POINT ( 'NONE',  ( 2.444036937190193601E-13, 1.199999999999990186, 70.00000000000000000 ) ) ;
#2 = PERSON_AND_ORGANIZATION ( #190, #19 ) ;
#3 = ORIENTED_EDGE ( 'NONE', *, *, #135, .T. ) ;
#4 = CIRCLE ( 'NONE', #173, 1.643999999999992578 ) ;
#5 = APPROVAL_ROLE ( '' ) ;
#6 = PERSON_AND_ORGANIZATION_ROLE ( 'creator' ) ;
#7 = AXIS2_PLACEMENT_3D ( 'NONE', #222, #56, #146 ) ;
#8 = FACE_OUTER_BOUND ( 'NONE', #214, .T. ) ;
#9 = ORIENTED_EDGE ( 'NONE', *, *, #17, .F. ) ;
#10 = EDGE_LOOP ( 'NONE', ( #102 ) ) ;
#11 = EDGE_LOOP ( 'NONE', ( #39 ) ) ;
#12 = FACE_OUTER_BOUND ( 'NONE', #187, .T. ) ;
#13 = CARTESIAN_POINT ( 'NONE',  ( 3.782362388633030660E-14, 1.643999999999998574, 10.83311643844064776 ) ) ;
#14 = CALENDAR_DATE ( 2021, 26, 11 ) ;
#15 = DIRECTION ( 'NONE',  ( -3.491481338843133355E-15, 1.049697256412017316E-16, -1.000000000000000000 ) ) ;
#16 = CARTESIAN_POINT ( 'NONE',  ( 8.728703347107833388E-16, 1.643999999999998574, 0.2499999999999999445 ) ) ;
#17 = EDGE_CURVE ( 'NONE', #167, #167, #166, .T. ) ;
#18 = PERSON_AND_ORGANIZATION ( #190, #19 ) ;
#19 = ORGANIZATION ( 'UNSPECIFIED', 'UNSPECIFIED', '' ) ;
#20 = CARTESIAN_POINT ( 'NONE',  ( 8.728703347107864943E-16, 1.365991807030307835E-16, 0.2500000000000008882 ) ) ;
#21 = AXIS2_PLACEMENT_3D ( 'NONE', #142, #22, #25 ) ;
#22 = DIRECTION ( 'NONE',  ( -3.491481338843133355E-15, -5.463967228121212604E-16, -1.000000000000000000 ) ) ;
#23 = CARTESIAN_POINT ( 'NONE',  ( 3.782362388633030029E-14, -1.137149260382306927E-15, 10.83311643844064598 ) ) ;
#24 = DIRECTION ( 'NONE',  ( 3.491481338843133355E-15, 5.463967228121212604E-16, 1.000000000000000000 ) ) ;
#25 = DIRECTION ( 'NONE',  ( -1.907733961303565632E-30, 1.000000000000000000, -5.463967228121212604E-16 ) ) ;
#26 = AXIS2_PLACEMENT_3D ( 'NONE', #13, #52, #90 ) ;
#27 = CARTESIAN_POINT ( 'NONE',  ( 3.869445280877825814E-14, -1.163330317703974832E-15, 11.08253175473057794 ) ) ;
#28 =( NAMED_UNIT ( * ) SI_UNIT ( $, .STERADIAN. ) SOLID_ANGLE_UNIT ( ) );
#29 = APPROVAL_STATUS ( 'not_yet_approved' ) ;
#30 = CONICAL_SURFACE ( 'NONE', #118, 1.643999999999999684, 0.5235987755982945968 ) ;
#31 = VERTEX_POINT ( 'NONE', #1 ) ;
#32 = ADVANCED_FACE ( 'NONE', ( #85, #160 ), #68, .T. ) ;
#33 = PERSON_AND_ORGANIZATION_ROLE ( 'design_supplier' ) ;
#34 = CC_DESIGN_APPROVAL ( #59, ( #76 ) ) ;
#35 = CALENDAR_DATE ( 2021, 26, 11 ) ;
#36 = APPLICATION_CONTEXT ( 'configuration controlled 3d designs of mechanical parts and assemblies' ) ;
#37 = ORIENTED_EDGE ( 'NONE', *, *, #53, .F. ) ;
#38 = DATE_AND_TIME ( #203, #61 ) ;
#39 = ORIENTED_EDGE ( 'NONE', *, *, #53, .T. ) ;
#40 = CLOSED_SHELL ( 'NONE', ( #67, #147, #131, #78 ) ) ;
#41 = CIRCLE ( 'NONE', #116, 1.643999999999999684 ) ;
#42 = CALENDAR_DATE ( 2021, 26, 11 ) ;
#43 = MANIFOLD_SOLID_BREP ( 'Corps-Déplacer/Copier1[1]', #178 ) ;
#44 = DIRECTION ( 'NONE',  ( -3.664998382197393967E-31, -1.000000000000000000, -1.049697256412017316E-16 ) ) ;
#45 = CIRCLE ( 'NONE', #224, 1.499999999999992673 ) ;
#46 = DIRECTION ( 'NONE',  ( -3.491481338843133355E-15, -5.463967228121212604E-16, -1.000000000000000000 ) ) ;
#47 = CARTESIAN_POINT ( 'NONE',  ( 2.444036937190193601E-13, -7.347880794884121511E-15, 70.00000000000000000 ) ) ;
#48 = CARTESIAN_POINT ( 'NONE',  ( 2.671683370719542019E-30, 4.181030618472355969E-31, 7.652005299288746174E-16 ) ) ;
#49 = DESIGN_CONTEXT ( 'detailed design', #36, 'design' ) ;
#50 = CARTESIAN_POINT ( 'NONE',  ( 0.0000000000000000000, 0.0000000000000000000, 0.0000000000000000000 ) ) ;
#51 = AXIS2_PLACEMENT_3D ( 'NONE', #91, #70, #164 ) ;
#52 = DIRECTION ( 'NONE',  ( -3.491481338843133355E-15, 1.049697256412017316E-16, -1.000000000000000000 ) ) ;
#53 = EDGE_CURVE ( 'NONE', #243, #243, #41, .T. ) ;
#54 = FACE_OUTER_BOUND ( 'NONE', #11, .T. ) ;
#55 = DIRECTION ( 'NONE',  ( -3.491481338843133355E-15, 1.049697256412017316E-16, -1.000000000000000000 ) ) ;
#56 = DIRECTION ( 'NONE',  ( 0.0000000000000000000, 0.0000000000000000000, 1.000000000000000000 ) ) ;
#57 = APPROVAL_DATE_TIME ( #129, #59 ) ;
#58 = EDGE_LOOP ( 'NONE', ( #62 ) ) ;
#59 = APPROVAL ( #29, 'UNSPECIFIED' ) ;
#60 = COORDINATED_UNIVERSAL_TIME_OFFSET ( 1, 0, .AHEAD. ) ;
#61 = LOCAL_TIME ( 14, 1, 38.00000000000000000, #207 ) ;
#62 = ORIENTED_EDGE ( 'NONE', *, *, #182, .T. ) ;
#63 = CC_DESIGN_PERSON_AND_ORGANIZATION_ASSIGNMENT ( #18, #81, ( #184 ) ) ;
#64 = CARTESIAN_POINT ( 'NONE',  ( 2.444036937190193601E-13, -7.347880794884121511E-15, 70.00000000000000000 ) ) ;
#65 = DIRECTION ( 'NONE',  ( -3.748768748199015942E-30, 1.000000000000000000, -1.055184596092953059E-15 ) ) ;
#66 = DIRECTION ( 'NONE',  ( -3.491481338843133355E-15, -5.463967228121212604E-16, -1.000000000000000000 ) ) ;
#67 = ADVANCED_FACE ( 'NONE', ( #12 ), #88, .T. ) ;
#68 = CYLINDRICAL_SURFACE ( 'NONE', #199, 1.499999999999995337 ) ;
#69 = DIRECTION ( 'NONE',  ( 1.907733961303565282E-30, -1.000000000000000000, 5.463967228121212604E-16 ) ) ;
#70 = DIRECTION ( 'NONE',  ( -3.491481338843133355E-15, -5.463967228121212604E-16, -1.000000000000000000 ) ) ;
#71 = CC_DESIGN_PERSON_AND_ORGANIZATION_ASSIGNMENT ( #148, #218, ( #143 ) ) ;
#72 =( LENGTH_UNIT ( ) NAMED_UNIT ( * ) SI_UNIT ( .MILLI., .METRE. ) );
#73 = AXIS2_PLACEMENT_3D ( 'NONE', #20, #66, #87 ) ;
#74 = AXIS2_PLACEMENT_3D ( 'NONE', #47, #192, #139 ) ;
#75 = VERTEX_POINT ( 'NONE', #109 ) ;
#76 = PRODUCT_DEFINITION ( 'UNKNOWN', '', #176, #49 ) ;
#77 = EDGE_LOOP ( 'NONE', ( #113 ) ) ;
#78 = ADVANCED_FACE ( 'NONE', ( #158 ), #193, .T. ) ;
#79 = LOCAL_TIME ( 14, 1, 38.00000000000000000, #60 ) ;
#80 = PERSON_AND_ORGANIZATION ( #190, #19 ) ;
#81 = PERSON_AND_ORGANIZATION_ROLE ( 'classification_officer' ) ;
#82 = AXIS2_PLACEMENT_3D ( 'NONE', #210, #24, #161 ) ;
#83 = DIRECTION ( 'NONE',  ( -1.907733961303565632E-30, 1.000000000000000000, -5.463967228121212604E-16 ) ) ;
#84 = DIRECTION ( 'NONE',  ( -3.491481338843133355E-15, 1.049697256412017316E-16, -1.000000000000000000 ) ) ;
#85 = FACE_OUTER_BOUND ( 'NONE', #138, .T. ) ;
#86 = APPROVAL_PERSON_ORGANIZATION ( #2, #154, #110 ) ;
#87 = DIRECTION ( 'NONE',  ( -1.874384374099501665E-30, 1.000000000000000000, -5.605668166743793960E-16 ) ) ;
#88 = PLANE ( 'NONE',  #82 ) ;
#89 = PLANE ( 'NONE',  #26 ) ;
#90 = DIRECTION ( 'NONE',  ( 3.664998382197393967E-31, 1.000000000000000000, 1.049697256412017316E-16 ) ) ;
#91 = CARTESIAN_POINT ( 'NONE',  ( 2.671683370719542019E-30, 4.181030618472355969E-31, 7.652005299288746174E-16 ) ) ;
#92 = CC_DESIGN_DATE_AND_TIME_ASSIGNMENT ( #228, #169, ( #76 ) ) ;
#93 = APPROVAL_PERSON_ORGANIZATION ( #185, #188, #5 ) ;
#94 = DATE_AND_TIME ( #42, #196 ) ;
#95 = CC_DESIGN_PERSON_AND_ORGANIZATION_ASSIGNMENT ( #80, #33, ( #176 ) ) ;
#96 = APPROVAL_DATE_TIME ( #170, #188 ) ;
#97 = AXIS2_PLACEMENT_3D ( 'NONE', #48, #233, #69 ) ;
#98 = PRODUCT_DEFINITION_SHAPE ( 'NONE', 'NONE',  #76 ) ;
#99 = ORIENTED_EDGE ( 'NONE', *, *, #216, .F. ) ;
#100 = CARTESIAN_POINT ( 'NONE',  ( 3.782362388633030029E-14, -1.137149260382306927E-15, 10.83311643844064598 ) ) ;
#101 = APPLICATION_CONTEXT ( 'configuration controlled 3d designs of mechanical parts and assemblies' ) ;
#102 = ORIENTED_EDGE ( 'NONE', *, *, #230, .F. ) ;
#103 = FACE_BOUND ( 'NONE', #58, .T. ) ;
#104 = AXIS2_PLACEMENT_3D ( 'NONE', #150, #55, #202 ) ;
#105 = ADVANCED_FACE ( 'NONE', ( #140, #236 ), #30, .T. ) ;
#106 = DIRECTION ( 'NONE',  ( -3.491481338843133355E-15, 1.049697256412017316E-16, -1.000000000000000000 ) ) ;
#107 = AXIS2_PLACEMENT_3D ( 'NONE', #145, #15, #162 ) ;
#108 = PRODUCT_RELATED_PRODUCT_CATEGORY ( 'detail', '', ( #143 ) ) ;
#109 = CARTESIAN_POINT ( 'NONE',  ( 3.869445280877825814E-14, 1.499999999999991562, 11.08253175473057794 ) ) ;
#110 = APPROVAL_ROLE ( '' ) ;
#111 = CONICAL_SURFACE ( 'NONE', #104, 1.499999999999997558, 0.7853981633974573828 ) ;
#112 = COORDINATED_UNIVERSAL_TIME_OFFSET ( 1, 0, .AHEAD. ) ;
#113 = ORIENTED_EDGE ( 'NONE', *, *, #242, .T. ) ;
#114 = EDGE_LOOP ( 'NONE', ( #206 ) ) ;
#115 = ADVANCED_BREP_SHAPE_REPRESENTATION ( '321232', ( #43, #130, #7 ), #136 ) ;
#116 = AXIS2_PLACEMENT_3D ( 'NONE', #23, #84, #141 ) ;
#117 = ORIENTED_EDGE ( 'NONE', *, *, #135, .F. ) ;
#118 = AXIS2_PLACEMENT_3D ( 'NONE', #100, #157, #235 ) ;
#119 = CYLINDRICAL_SURFACE ( 'NONE', #220, 1.643999999999995465 ) ;
#120 = CARTESIAN_POINT ( 'NONE',  ( 0.0000000000000000000, 0.0000000000000000000, 0.0000000000000000000 ) ) ;
#121 = FACE_OUTER_BOUND ( 'NONE', #180, .T. ) ;
#122 = CC_DESIGN_APPROVAL ( #154, ( #176 ) ) ;
#123 = DIRECTION ( 'NONE',  ( -3.491481338843133355E-15, -5.463967228121212604E-16, -1.000000000000000000 ) ) ;
#124 = CARTESIAN_POINT ( 'NONE',  ( -1.892735826383164860E-31, 1.499662432702592474, -5.421010862427522170E-17 ) ) ;
#125 = APPLICATION_PROTOCOL_DEFINITION ( 'international standard', 'config_control_design', 1994, #36 ) ;
#126 = DIRECTION ( 'NONE',  ( 0.0000000000000000000, 1.000000000000000000, 0.0000000000000000000 ) ) ;
#127 = CIRCLE ( 'NONE', #74, 1.199999999999997513 ) ;
#128 = APPROVAL_ROLE ( '' ) ;
#129 = DATE_AND_TIME ( #14, #183 ) ;
#130 = MANIFOLD_SOLID_BREP ( 'Corps-Déplacer/Copier1[2]', #40 ) ;
#131 = ADVANCED_FACE ( 'NONE', ( #213, #237 ), #144, .T. ) ;
#132 = PERSON_AND_ORGANIZATION_ROLE ( 'creator' ) ;
#133 = EDGE_LOOP ( 'NONE', ( #229 ) ) ;
#134 = SECURITY_CLASSIFICATION_LEVEL ( 'unclassified' ) ;
#135 = EDGE_CURVE ( 'NONE', #163, #163, #4, .T. ) ;
#136 =( GEOMETRIC_REPRESENTATION_CONTEXT ( 3 ) GLOBAL_UNCERTAINTY_ASSIGNED_CONTEXT ( ( #201 ) ) GLOBAL_UNIT_ASSIGNED_CONTEXT ( ( #72, #200, #28 ) ) REPRESENTATION_CONTEXT ( 'NONE', 'WORKASPACE' ) );
#137 = ORIENTED_EDGE ( 'NONE', *, *, #216, .T. ) ;
#138 = EDGE_LOOP ( 'NONE', ( #195 ) ) ;
#139 = DIRECTION ( 'NONE',  ( 0.0000000000000000000, 1.000000000000000000, 0.0000000000000000000 ) ) ;
#140 = FACE_BOUND ( 'NONE', #77, .T. ) ;
#141 = DIRECTION ( 'NONE',  ( 0.0000000000000000000, 1.000000000000000000, 0.0000000000000000000 ) ) ;
#142 = CARTESIAN_POINT ( 'NONE',  ( -1.525115267998087123E-30, 1.499662432702592474, -4.368103735887125304E-16 ) ) ;
#143 = PRODUCT ( '321232', '321232', '', ( #240 ) ) ;
#144 = CONICAL_SURFACE ( 'NONE', #97, 1.499662432702592474, 0.5235987755982970393 ) ;
#145 = CARTESIAN_POINT ( 'NONE',  ( 2.433562493173664138E-13, -7.316389877191761450E-15, 69.70000000000001705 ) ) ;
#146 = DIRECTION ( 'NONE',  ( 1.000000000000000000, 0.0000000000000000000, 0.0000000000000000000 ) ) ;
#147 = ADVANCED_FACE ( 'NONE', ( #121, #8 ), #119, .T. ) ;
#148 = PERSON_AND_ORGANIZATION ( #190, #19 ) ;
#149 = CARTESIAN_POINT ( 'NONE',  ( 3.782362388633030029E-14, 1.643999999999998574, 10.83311643844064598 ) ) ;
#150 = CARTESIAN_POINT ( 'NONE',  ( 2.433562493173664138E-13, -7.316389877191761450E-15, 69.70000000000001705 ) ) ;
#151 = ORIENTED_EDGE ( 'NONE', *, *, #242, .F. ) ;
#152 = APPROVAL_PERSON_ORGANIZATION ( #198, #59, #128 ) ;
#153 = APPROVAL_STATUS ( 'not_yet_approved' ) ;
#154 = APPROVAL ( #204, 'UNSPECIFIED' ) ;
#155 = PERSON_AND_ORGANIZATION ( #190, #19 ) ;
#156 = DIRECTION ( 'NONE',  ( -3.491481338843133355E-15, 1.049697256412017316E-16, -1.000000000000000000 ) ) ;
#157 = DIRECTION ( 'NONE',  ( -3.491481338843133355E-15, 1.049697256412017316E-16, -1.000000000000000000 ) ) ;
#158 = FACE_OUTER_BOUND ( 'NONE', #209, .T. ) ;
#159 = CC_DESIGN_APPROVAL ( #188, ( #184 ) ) ;
#160 = FACE_OUTER_BOUND ( 'NONE', #205, .T. ) ;
#161 = DIRECTION ( 'NONE',  ( 1.907733961303565632E-30, -1.000000000000000000, 5.463967228121212604E-16 ) ) ;
#162 = DIRECTION ( 'NONE',  ( 0.0000000000000000000, 1.000000000000000000, 0.0000000000000000000 ) ) ;
#163 = VERTEX_POINT ( 'NONE', #149 ) ;
#164 = DIRECTION ( 'NONE',  ( -1.907733961303565632E-30, 1.000000000000000000, -5.463967228121212604E-16 ) ) ;
#165 = ADVANCED_FACE ( 'NONE', ( #232 ), #194, .T. ) ;
#166 = CIRCLE ( 'NONE', #73, 1.643999999999998352 ) ;
#167 = VERTEX_POINT ( 'NONE', #16 ) ;
#168 = LOCAL_TIME ( 14, 1, 38.00000000000000000, #112 ) ;
#169 = DATE_TIME_ROLE ( 'creation_date' ) ;
#170 = DATE_AND_TIME ( #35, #168 ) ;
#171 = EDGE_LOOP ( 'NONE', ( #37 ) ) ;
#172 = APPROVAL_DATE_TIME ( #38, #154 ) ;
#173 = AXIS2_PLACEMENT_3D ( 'NONE', #215, #46, #65 ) ;
#174 = CC_DESIGN_PERSON_AND_ORGANIZATION_ASSIGNMENT ( #225, #132, ( #176 ) ) ;
#175 = DIRECTION ( 'NONE',  ( 3.664998382197393967E-31, 1.000000000000000000, 1.049697256412017316E-16 ) ) ;
#176 = PRODUCT_DEFINITION_FORMATION_WITH_SPECIFIED_SOURCE ( 'ANY', '', #143, .NOT_KNOWN. ) ;
#177 = FACE_OUTER_BOUND ( 'NONE', #10, .T. ) ;
#178 = CLOSED_SHELL ( 'NONE', ( #165, #191, #32, #105, #238 ) ) ;
#179 = CC_DESIGN_DATE_AND_TIME_ASSIGNMENT ( #94, #226, ( #184 ) ) ;
#180 = EDGE_LOOP ( 'NONE', ( #3 ) ) ;
#181 = APPLICATION_PROTOCOL_DEFINITION ( 'international standard', 'config_control_design', 1994, #101 ) ;
#182 = EDGE_CURVE ( 'NONE', #31, #31, #127, .T. ) ;
#183 = LOCAL_TIME ( 14, 1, 38.00000000000000000, #219 ) ;
#184 = SECURITY_CLASSIFICATION ( '', '', #134 ) ;
#185 = PERSON_AND_ORGANIZATION ( #190, #19 ) ;
#186 = SHAPE_DEFINITION_REPRESENTATION ( #98, #115 ) ;
#187 = EDGE_LOOP ( 'NONE', ( #117 ) ) ;
#188 = APPROVAL ( #153, 'UNSPECIFIED' ) ;
#189 = CALENDAR_DATE ( 2021, 26, 11 ) ;
#190 = PERSON ( 'UNSPECIFIED', 'UNSPECIFIED', 'UNSPECIFIED', ('UNSPECIFIED'), ('UNSPECIFIED'), ('UNSPECIFIED') ) ;
#191 = ADVANCED_FACE ( 'NONE', ( #103, #177 ), #111, .T. ) ;
#192 = DIRECTION ( 'NONE',  ( -3.491481338843133355E-15, 1.049697256412017316E-16, -1.000000000000000000 ) ) ;
#193 = PLANE ( 'NONE',  #21 ) ;
#194 = PLANE ( 'NONE',  #217 ) ;
#195 = ORIENTED_EDGE ( 'NONE', *, *, #230, .T. ) ;
#196 = LOCAL_TIME ( 14, 1, 38.00000000000000000, #223 ) ;
#197 = VERTEX_POINT ( 'NONE', #124 ) ;
#198 = PERSON_AND_ORGANIZATION ( #190, #19 ) ;
#199 = AXIS2_PLACEMENT_3D ( 'NONE', #50, #156, #175 ) ;
#200 =( NAMED_UNIT ( * ) PLANE_ANGLE_UNIT ( ) SI_UNIT ( $, .RADIAN. ) );
#201 = UNCERTAINTY_MEASURE_WITH_UNIT (LENGTH_MEASURE( 1.000000000000000082E-05 ), #72, 'distance_accuracy_value', 'NONE');
#202 = DIRECTION ( 'NONE',  ( 0.0000000000000000000, 1.000000000000000000, 0.0000000000000000000 ) ) ;
#203 = CALENDAR_DATE ( 2021, 26, 11 ) ;
#204 = APPROVAL_STATUS ( 'not_yet_approved' ) ;
#205 = EDGE_LOOP ( 'NONE', ( #151 ) ) ;
#206 = ORIENTED_EDGE ( 'NONE', *, *, #182, .F. ) ;
#207 = COORDINATED_UNIVERSAL_TIME_OFFSET ( 1, 0, .AHEAD. ) ;
#208 = CIRCLE ( 'NONE', #51, 1.499662432702592474 ) ;
#209 = EDGE_LOOP ( 'NONE', ( #137 ) ) ;
#210 = CARTESIAN_POINT ( 'NONE',  ( 3.782362388633030660E-14, 5.919179319806087929E-15, 10.83311643844064776 ) ) ;
#211 = DIRECTION ( 'NONE',  ( 3.491481338843133355E-15, -1.049697256412017316E-16, 1.000000000000000000 ) ) ;
#212 = CIRCLE ( 'NONE', #107, 1.499999999999997558 ) ;
#213 = FACE_OUTER_BOUND ( 'NONE', #133, .T. ) ;
#214 = EDGE_LOOP ( 'NONE', ( #9 ) ) ;
#215 = CARTESIAN_POINT ( 'NONE',  ( 3.782362388633030660E-14, 5.919179319806088718E-15, 10.83311643844064776 ) ) ;
#216 = EDGE_CURVE ( 'NONE', #197, #197, #208, .T. ) ;
#217 = AXIS2_PLACEMENT_3D ( 'NONE', #64, #211, #44 ) ;
#218 = PERSON_AND_ORGANIZATION_ROLE ( 'design_owner' ) ;
#219 = COORDINATED_UNIVERSAL_TIME_OFFSET ( 1, 0, .AHEAD. ) ;
#220 = AXIS2_PLACEMENT_3D ( 'NONE', #120, #123, #83 ) ;
#221 = CARTESIAN_POINT ( 'NONE',  ( 2.433562493173664138E-13, 1.499999999999990230, 69.70000000000001705 ) ) ;
#222 = CARTESIAN_POINT ( 'NONE',  ( 0.0000000000000000000, 0.0000000000000000000, 0.0000000000000000000 ) ) ;
#223 = COORDINATED_UNIVERSAL_TIME_OFFSET ( 1, 0, .AHEAD. ) ;
#224 = AXIS2_PLACEMENT_3D ( 'NONE', #27, #106, #126 ) ;
#225 = PERSON_AND_ORGANIZATION ( #190, #19 ) ;
#226 = DATE_TIME_ROLE ( 'classification_date' ) ;
#227 = EDGE_LOOP ( 'NONE', ( #99 ) ) ;
#228 = DATE_AND_TIME ( #189, #79 ) ;
#229 = ORIENTED_EDGE ( 'NONE', *, *, #17, .T. ) ;
#230 = EDGE_CURVE ( 'NONE', #241, #241, #212, .T. ) ;
#231 = CC_DESIGN_SECURITY_CLASSIFICATION ( #184, ( #176 ) ) ;
#232 = FACE_OUTER_BOUND ( 'NONE', #114, .T. ) ;
#233 = DIRECTION ( 'NONE',  ( 3.491481338843133355E-15, 5.463967228121212604E-16, 1.000000000000000000 ) ) ;
#234 = CC_DESIGN_PERSON_AND_ORGANIZATION_ASSIGNMENT ( #155, #6, ( #76 ) ) ;
#235 = DIRECTION ( 'NONE',  ( 0.0000000000000000000, 1.000000000000000000, 0.0000000000000000000 ) ) ;
#236 = FACE_OUTER_BOUND ( 'NONE', #171, .T. ) ;
#237 = FACE_BOUND ( 'NONE', #227, .T. ) ;
#238 = ADVANCED_FACE ( 'NONE', ( #54 ), #89, .T. ) ;
#239 = CARTESIAN_POINT ( 'NONE',  ( 3.782362388633030029E-14, 1.643999999999998574, 10.83311643844064598 ) ) ;
#240 = MECHANICAL_CONTEXT ( 'NONE', #101, 'mechanical' ) ;
#241 = VERTEX_POINT ( 'NONE', #221 ) ;
#242 = EDGE_CURVE ( 'NONE', #75, #75, #45, .T. ) ;
#243 = VERTEX_POINT ( 'NONE', #239 ) ;
ENDSEC;
END-ISO-10303-21;
