ISO-10303-21;
HEADER;
FILE_DESCRIPTION (( 'STEP AP203' ),
    '1' );
FILE_NAME ('321231.step',
    '2021-11-26T13:01:37',
    ( '' ),
    ( '' ),
    'SwSTEP 2.0',
    'SolidWorks 2019',
    '' );
FILE_SCHEMA (( 'CONFIG_CONTROL_DESIGN' ));
ENDSEC;

DATA;
#1 = CIRCLE ( 'NONE', #179, 1.494662432702592580 ) ;
#2 = FACE_BOUND ( 'NONE', #125, .T. ) ;
#3 = CC_DESIGN_PERSON_AND_ORGANIZATION_ASSIGNMENT ( #156, #80, ( #49 ) ) ;
#4 = FACE_OUTER_BOUND ( 'NONE', #89, .T. ) ;
#5 = APPROVAL_PERSON_ORGANIZATION ( #38, #168, #230 ) ;
#6 = CALENDAR_DATE ( 2021, 26, 11 ) ;
#7 = APPLICATION_PROTOCOL_DEFINITION ( 'international standard', 'config_control_design', 1994, #197 ) ;
#8 = CALENDAR_DATE ( 2021, 26, 11 ) ;
#9 = APPROVAL ( #120, 'UNSPECIFIED' ) ;
#10 = FACE_OUTER_BOUND ( 'NONE', #29, .T. ) ;
#11 = ADVANCED_FACE ( 'NONE', ( #27, #104 ), #88, .T. ) ;
#12 = EDGE_LOOP ( 'NONE', ( #101 ) ) ;
#13 = ORIENTED_EDGE ( 'NONE', *, *, #241, .T. ) ;
#14 = DIRECTION ( 'NONE',  ( -3.491481338843133355E-15, 1.049697256412017316E-16, -1.000000000000000000 ) ) ;
#15 = DIRECTION ( 'NONE',  ( -3.491481338843133355E-15, 1.049697256412017316E-16, -1.000000000000000000 ) ) ;
#16 = VERTEX_POINT ( 'NONE', #75 ) ;
#17 = DIRECTION ( 'NONE',  ( -3.491481338843133355E-15, 1.049697256412017316E-16, -1.000000000000000000 ) ) ;
#18 = ADVANCED_FACE ( 'NONE', ( #220 ), #144, .T. ) ;
#19 = DIRECTION ( 'NONE',  ( 1.905526996640015858E-30, -1.000000000000000000, 5.457646230099550631E-16 ) ) ;
#20 = DIRECTION ( 'NONE',  ( 0.0000000000000000000, 1.000000000000000000, 0.0000000000000000000 ) ) ;
#21 = AXIS2_PLACEMENT_3D ( 'NONE', #22, #119, #196 ) ;
#22 = CARTESIAN_POINT ( 'NONE',  ( 0.0000000000000000000, 0.0000000000000000000, 0.0000000000000000000 ) ) ;
#23 = PERSON_AND_ORGANIZATION_ROLE ( 'design_supplier' ) ;
#24 = PLANE ( 'NONE',  #167 ) ;
#25 = EDGE_LOOP ( 'NONE', ( #124 ) ) ;
#26 = CLOSED_SHELL ( 'NONE', ( #60, #194, #227, #42 ) ) ;
#27 = FACE_OUTER_BOUND ( 'NONE', #86, .T. ) ;
#28 = DIRECTION ( 'NONE',  ( -3.491481338843133355E-15, -5.457646230099550631E-16, -1.000000000000000000 ) ) ;
#29 = EDGE_LOOP ( 'NONE', ( #164 ) ) ;
#30 = CARTESIAN_POINT ( 'NONE',  ( 3.869445280877825814E-14, 1.499999999999991562, 11.08253175473057794 ) ) ;
#31 = CARTESIAN_POINT ( 'NONE',  ( 2.433562493173664138E-13, -7.316389877191761450E-15, 69.70000000000001705 ) ) ;
#32 = CC_DESIGN_APPROVAL ( #143, ( #219 ) ) ;
#33 = DIRECTION ( 'NONE',  ( -1.880102447235863598E-30, 1.000000000000000000, -5.622769045836971983E-16 ) ) ;
#34 = EDGE_CURVE ( 'NONE', #16, #16, #79, .T. ) ;
#35 = PERSON_AND_ORGANIZATION ( #140, #154 ) ;
#36 = COORDINATED_UNIVERSAL_TIME_OFFSET ( 1, 0, .AHEAD. ) ;
#37 = AXIS2_PLACEMENT_3D ( 'NONE', #142, #181, #240 ) ;
#38 = PERSON_AND_ORGANIZATION ( #140, #154 ) ;
#39 = APPROVAL_DATE_TIME ( #157, #143 ) ;
#40 = COORDINATED_UNIVERSAL_TIME_OFFSET ( 1, 0, .AHEAD. ) ;
#41 = CIRCLE ( 'NONE', #90, 1.638999999999998458 ) ;
#42 = ADVANCED_FACE ( 'NONE', ( #145 ), #24, .T. ) ;
#43 = CARTESIAN_POINT ( 'NONE',  ( 2.433562493173664138E-13, -7.316389877191761450E-15, 69.70000000000001705 ) ) ;
#44 = DIRECTION ( 'NONE',  ( -3.491481338843133355E-15, 1.049697256412017316E-16, -1.000000000000000000 ) ) ;
#45 = PLANE ( 'NONE',  #224 ) ;
#46 = ORIENTED_EDGE ( 'NONE', *, *, #57, .T. ) ;
#47 = CC_DESIGN_DATE_AND_TIME_ASSIGNMENT ( #114, #139, ( #78 ) ) ;
#48 = DIRECTION ( 'NONE',  ( 1.905526996640015858E-30, -1.000000000000000000, 5.457646230099550631E-16 ) ) ;
#49 = PRODUCT_DEFINITION_FORMATION_WITH_SPECIFIED_SOURCE ( 'ANY', '', #121, .NOT_KNOWN. ) ;
#50 = VERTEX_POINT ( 'NONE', #225 ) ;
#51 = DIRECTION ( 'NONE',  ( 3.664998382197393967E-31, 1.000000000000000000, 1.049697256412017316E-16 ) ) ;
#52 = AXIS2_PLACEMENT_3D ( 'NONE', #64, #238, #70 ) ;
#53 = FACE_OUTER_BOUND ( 'NONE', #105, .T. ) ;
#54 = CALENDAR_DATE ( 2021, 26, 11 ) ;
#55 = DATE_AND_TIME ( #54, #203 ) ;
#56 = CALENDAR_DATE ( 2021, 26, 11 ) ;
#57 = EDGE_CURVE ( 'NONE', #50, #50, #205, .T. ) ;
#58 = MECHANICAL_CONTEXT ( 'NONE', #232, 'mechanical' ) ;
#59 = DATE_AND_TIME ( #195, #117 ) ;
#60 = ADVANCED_FACE ( 'NONE', ( #10 ), #45, .T. ) ;
#61 = CC_DESIGN_SECURITY_CLASSIFICATION ( #219, ( #49 ) ) ;
#62 = DIRECTION ( 'NONE',  ( -3.491481338843133355E-15, -5.457646230099550631E-16, -1.000000000000000000 ) ) ;
#63 = CC_DESIGN_APPROVAL ( #168, ( #78 ) ) ;
#64 = CARTESIAN_POINT ( 'NONE',  ( 0.0000000000000000000, 0.0000000000000000000, 0.0000000000000000000 ) ) ;
#65 = ORIENTED_EDGE ( 'NONE', *, *, #67, .T. ) ;
#66 = ORIENTED_EDGE ( 'NONE', *, *, #57, .F. ) ;
#67 = EDGE_CURVE ( 'NONE', #170, #170, #192, .T. ) ;
#68 = CLOSED_SHELL ( 'NONE', ( #18, #138, #11, #152, #111 ) ) ;
#69 = MANIFOLD_SOLID_BREP ( 'Corps-Déplacer/Copier1[1]', #68 ) ;
#70 = DIRECTION ( 'NONE',  ( 3.664998382197393967E-31, 1.000000000000000000, 1.049697256412017316E-16 ) ) ;
#71 = CARTESIAN_POINT ( 'NONE',  ( 2.658846033740114726E-30, 4.156127335128465803E-31, 7.615237704867975928E-16 ) ) ;
#72 = ADVANCED_BREP_SHAPE_REPRESENTATION ( '321231', ( #69, #159, #21 ), #191 ) ;
#73 = DIRECTION ( 'NONE',  ( 0.0000000000000000000, 1.000000000000000000, 0.0000000000000000000 ) ) ;
#74 = APPROVAL_PERSON_ORGANIZATION ( #137, #143, #177 ) ;
#75 = CARTESIAN_POINT ( 'NONE',  ( 3.785386100169306902E-14, 1.638999999999998680, 10.84177669247848819 ) ) ;
#76 = VERTEX_POINT ( 'NONE', #30 ) ;
#77 = FACE_OUTER_BOUND ( 'NONE', #25, .T. ) ;
#78 = PRODUCT_DEFINITION ( 'UNKNOWN', '', #49, #186 ) ;
#79 = CIRCLE ( 'NONE', #107, 1.638999999999992907 ) ;
#80 = PERSON_AND_ORGANIZATION_ROLE ( 'creator' ) ;
#81 = APPROVAL_DATE_TIME ( #176, #168 ) ;
#82 = CC_DESIGN_PERSON_AND_ORGANIZATION_ASSIGNMENT ( #35, #211, ( #121 ) ) ;
#83 = COORDINATED_UNIVERSAL_TIME_OFFSET ( 1, 0, .AHEAD. ) ;
#84 = PERSON_AND_ORGANIZATION ( #140, #154 ) ;
#85 = EDGE_LOOP ( 'NONE', ( #216 ) ) ;
#86 = EDGE_LOOP ( 'NONE', ( #182 ) ) ;
#87 = ORIENTED_EDGE ( 'NONE', *, *, #237, .F. ) ;
#88 = CYLINDRICAL_SURFACE ( 'NONE', #52, 1.499999999999995337 ) ;
#89 = EDGE_LOOP ( 'NONE', ( #46 ) ) ;
#90 = AXIS2_PLACEMENT_3D ( 'NONE', #171, #228, #33 ) ;
#91 = CC_DESIGN_DATE_AND_TIME_ASSIGNMENT ( #55, #178, ( #219 ) ) ;
#92 = UNCERTAINTY_MEASURE_WITH_UNIT (LENGTH_MEASURE( 1.000000000000000082E-05 ), #226, 'distance_accuracy_value', 'NONE');
#93 = DIRECTION ( 'NONE',  ( -1.905526996640015858E-30, 1.000000000000000000, -5.457646230099550631E-16 ) ) ;
#94 = CYLINDRICAL_SURFACE ( 'NONE', #175, 1.638999999999995794 ) ;
#95 = EDGE_CURVE ( 'NONE', #131, #131, #1, .T. ) ;
#96 = CONICAL_SURFACE ( 'NONE', #235, 1.494662432702592580, 0.5235987755982970393 ) ;
#97 = SECURITY_CLASSIFICATION_LEVEL ( 'unclassified' ) ;
#98 = COORDINATED_UNIVERSAL_TIME_OFFSET ( 1, 0, .AHEAD. ) ;
#99 = PERSON_AND_ORGANIZATION_ROLE ( 'classification_officer' ) ;
#100 = DIRECTION ( 'NONE',  ( -1.905526996640015858E-30, 1.000000000000000000, -5.457646230099550631E-16 ) ) ;
#101 = ORIENTED_EDGE ( 'NONE', *, *, #237, .T. ) ;
#102 = AXIS2_PLACEMENT_3D ( 'NONE', #207, #188, #73 ) ;
#103 = EDGE_CURVE ( 'NONE', #133, #133, #172, .T. ) ;
#104 = FACE_OUTER_BOUND ( 'NONE', #239, .T. ) ;
#105 = EDGE_LOOP ( 'NONE', ( #165 ) ) ;
#106 = DIRECTION ( 'NONE',  ( 0.0000000000000000000, 1.000000000000000000, 0.0000000000000000000 ) ) ;
#107 = AXIS2_PLACEMENT_3D ( 'NONE', #126, #28, #202 ) ;
#108 = FACE_BOUND ( 'NONE', #148, .T. ) ;
#109 = CARTESIAN_POINT ( 'NONE',  ( -1.892735826383161356E-31, 1.494662432702592580, -5.421010862427522170E-17 ) ) ;
#110 = LOCAL_TIME ( 14, 1, 37.00000000000000000, #40 ) ;
#111 = ADVANCED_FACE ( 'NONE', ( #4 ), #223, .T. ) ;
#112 = VERTEX_POINT ( 'NONE', #135 ) ;
#113 =( NAMED_UNIT ( * ) PLANE_ANGLE_UNIT ( ) SI_UNIT ( $, .RADIAN. ) );
#114 = DATE_AND_TIME ( #56, #147 ) ;
#115 = CC_DESIGN_PERSON_AND_ORGANIZATION_ASSIGNMENT ( #213, #212, ( #78 ) ) ;
#116 = APPROVAL_PERSON_ORGANIZATION ( #84, #9, #193 ) ;
#117 = LOCAL_TIME ( 14, 1, 37.00000000000000000, #158 ) ;
#118 = PERSON_AND_ORGANIZATION ( #140, #154 ) ;
#119 = DIRECTION ( 'NONE',  ( 0.0000000000000000000, 0.0000000000000000000, 1.000000000000000000 ) ) ;
#120 = APPROVAL_STATUS ( 'not_yet_approved' ) ;
#121 = PRODUCT ( '321231', '321231', '', ( #58 ) ) ;
#122 = SHAPE_DEFINITION_REPRESENTATION ( #180, #72 ) ;
#123 = CARTESIAN_POINT ( 'NONE',  ( 3.785386100169306902E-14, 5.917058169328640207E-15, 10.84177669247848819 ) ) ;
#124 = ORIENTED_EDGE ( 'NONE', *, *, #103, .F. ) ;
#125 = EDGE_LOOP ( 'NONE', ( #65 ) ) ;
#126 = CARTESIAN_POINT ( 'NONE',  ( 3.785386100169307533E-14, 5.917058169328640996E-15, 10.84177669247848996 ) ) ;
#127 = CARTESIAN_POINT ( 'NONE',  ( -1.518696599508373652E-30, 1.494662432702592580, -4.349719938676740181E-16 ) ) ;
#128 = AXIS2_PLACEMENT_3D ( 'NONE', #190, #17, #151 ) ;
#129 = APPLICATION_PROTOCOL_DEFINITION ( 'international standard', 'config_control_design', 1994, #232 ) ;
#130 = CIRCLE ( 'NONE', #102, 1.499999999999992673 ) ;
#131 = VERTEX_POINT ( 'NONE', #109 ) ;
#132 = CARTESIAN_POINT ( 'NONE',  ( 3.785386100169306902E-14, 1.638999999999998680, 10.84177669247848819 ) ) ;
#133 = VERTEX_POINT ( 'NONE', #173 ) ;
#134 = AXIS2_PLACEMENT_3D ( 'NONE', #31, #204, #20 ) ;
#135 = CARTESIAN_POINT ( 'NONE',  ( 8.728703347107833388E-16, 1.638999999999998680, 0.2499999999999999445 ) ) ;
#136 = APPROVAL_STATUS ( 'not_yet_approved' ) ;
#137 = PERSON_AND_ORGANIZATION ( #140, #154 ) ;
#138 = ADVANCED_FACE ( 'NONE', ( #2, #77 ), #162, .T. ) ;
#139 = DATE_TIME_ROLE ( 'creation_date' ) ;
#140 = PERSON ( 'UNSPECIFIED', 'UNSPECIFIED', 'UNSPECIFIED', ('UNSPECIFIED'), ('UNSPECIFIED'), ('UNSPECIFIED') ) ;
#141 = AXIS2_PLACEMENT_3D ( 'NONE', #43, #44, #199 ) ;
#142 = CARTESIAN_POINT ( 'NONE',  ( 2.444036937190193601E-13, -7.347880794884121511E-15, 70.00000000000000000 ) ) ;
#143 = APPROVAL ( #233, 'UNSPECIFIED' ) ;
#144 = PLANE ( 'NONE',  #37 ) ;
#145 = FACE_OUTER_BOUND ( 'NONE', #85, .T. ) ;
#146 = EDGE_LOOP ( 'NONE', ( #87 ) ) ;
#147 = LOCAL_TIME ( 14, 1, 37.00000000000000000, #83 ) ;
#148 = EDGE_LOOP ( 'NONE', ( #13 ) ) ;
#149 = DIRECTION ( 'NONE',  ( -3.491481338843133355E-15, 1.049697256412017316E-16, -1.000000000000000000 ) ) ;
#150 = CC_DESIGN_APPROVAL ( #9, ( #49 ) ) ;
#151 = DIRECTION ( 'NONE',  ( 0.0000000000000000000, 1.000000000000000000, 0.0000000000000000000 ) ) ;
#152 = ADVANCED_FACE ( 'NONE', ( #108, #242 ), #229, .T. ) ;
#153 = DIRECTION ( 'NONE',  ( 3.491481338843133355E-15, 5.457646230099550631E-16, 1.000000000000000000 ) ) ;
#154 = ORGANIZATION ( 'UNSPECIFIED', 'UNSPECIFIED', '' ) ;
#155 = CC_DESIGN_PERSON_AND_ORGANIZATION_ASSIGNMENT ( #118, #23, ( #49 ) ) ;
#156 = PERSON_AND_ORGANIZATION ( #140, #154 ) ;
#157 = DATE_AND_TIME ( #8, #110 ) ;
#158 = COORDINATED_UNIVERSAL_TIME_OFFSET ( 1, 0, .AHEAD. ) ;
#159 = MANIFOLD_SOLID_BREP ( 'Corps-Déplacer/Copier1[2]', #26 ) ;
#160 = PERSON_AND_ORGANIZATION ( #140, #154 ) ;
#161 = DIRECTION ( 'NONE',  ( 0.0000000000000000000, 1.000000000000000000, 0.0000000000000000000 ) ) ;
#162 = CONICAL_SURFACE ( 'NONE', #134, 1.499999999999997558, 0.7853981633974573828 ) ;
#163 = LOCAL_TIME ( 14, 1, 37.00000000000000000, #36 ) ;
#164 = ORIENTED_EDGE ( 'NONE', *, *, #34, .F. ) ;
#165 = ORIENTED_EDGE ( 'NONE', *, *, #34, .T. ) ;
#166 = EDGE_LOOP ( 'NONE', ( #66 ) ) ;
#167 = AXIS2_PLACEMENT_3D ( 'NONE', #127, #201, #100 ) ;
#168 = APPROVAL ( #136, 'UNSPECIFIED' ) ;
#169 =( NAMED_UNIT ( * ) SI_UNIT ( $, .STERADIAN. ) SOLID_ANGLE_UNIT ( ) );
#170 = VERTEX_POINT ( 'NONE', #206 ) ;
#171 = CARTESIAN_POINT ( 'NONE',  ( 8.728703347107864943E-16, 1.364411557524892342E-16, 0.2500000000000008882 ) ) ;
#172 = CIRCLE ( 'NONE', #141, 1.499999999999997558 ) ;
#173 = CARTESIAN_POINT ( 'NONE',  ( 2.433562493173664138E-13, 1.499999999999990230, 69.70000000000001705 ) ) ;
#174 = DIRECTION ( 'NONE',  ( -3.491481338843133355E-15, -5.457646230099550631E-16, -1.000000000000000000 ) ) ;
#175 = AXIS2_PLACEMENT_3D ( 'NONE', #209, #174, #93 ) ;
#176 = DATE_AND_TIME ( #6, #163 ) ;
#177 = APPROVAL_ROLE ( '' ) ;
#178 = DATE_TIME_ROLE ( 'classification_date' ) ;
#179 = AXIS2_PLACEMENT_3D ( 'NONE', #234, #62, #215 ) ;
#180 = PRODUCT_DEFINITION_SHAPE ( 'NONE', 'NONE',  #78 ) ;
#181 = DIRECTION ( 'NONE',  ( 3.491481338843133355E-15, -1.049697256412017316E-16, 1.000000000000000000 ) ) ;
#182 = ORIENTED_EDGE ( 'NONE', *, *, #103, .T. ) ;
#183 = ORIENTED_EDGE ( 'NONE', *, *, #241, .F. ) ;
#184 = CARTESIAN_POINT ( 'NONE',  ( 3.785386100169306902E-14, -1.138058324872642453E-15, 10.84177669247848819 ) ) ;
#185 = CARTESIAN_POINT ( 'NONE',  ( 2.444036937190193601E-13, -7.347880794884121511E-15, 70.00000000000000000 ) ) ;
#186 = DESIGN_CONTEXT ( 'detailed design', #197, 'design' ) ;
#187 = PRODUCT_RELATED_PRODUCT_CATEGORY ( 'detail', '', ( #121 ) ) ;
#188 = DIRECTION ( 'NONE',  ( -3.491481338843133355E-15, 1.049697256412017316E-16, -1.000000000000000000 ) ) ;
#189 = FACE_OUTER_BOUND ( 'NONE', #146, .T. ) ;
#190 = CARTESIAN_POINT ( 'NONE',  ( 3.785386100169306902E-14, -1.138058324872642453E-15, 10.84177669247848819 ) ) ;
#191 =( GEOMETRIC_REPRESENTATION_CONTEXT ( 3 ) GLOBAL_UNCERTAINTY_ASSIGNED_CONTEXT ( ( #92 ) ) GLOBAL_UNIT_ASSIGNED_CONTEXT ( ( #226, #113, #169 ) ) REPRESENTATION_CONTEXT ( 'NONE', 'WORKASPACE' ) );
#192 = CIRCLE ( 'NONE', #222, 1.199999999999997513 ) ;
#193 = APPROVAL_ROLE ( '' ) ;
#194 = ADVANCED_FACE ( 'NONE', ( #53, #189 ), #94, .T. ) ;
#195 = CALENDAR_DATE ( 2021, 26, 11 ) ;
#196 = DIRECTION ( 'NONE',  ( 1.000000000000000000, 0.0000000000000000000, 0.0000000000000000000 ) ) ;
#197 = APPLICATION_CONTEXT ( 'configuration controlled 3d designs of mechanical parts and assemblies' ) ;
#198 = AXIS2_PLACEMENT_3D ( 'NONE', #184, #14, #106 ) ;
#199 = DIRECTION ( 'NONE',  ( 0.0000000000000000000, 1.000000000000000000, 0.0000000000000000000 ) ) ;
#200 = EDGE_LOOP ( 'NONE', ( #217 ) ) ;
#201 = DIRECTION ( 'NONE',  ( -3.491481338843133355E-15, -5.457646230099550631E-16, -1.000000000000000000 ) ) ;
#202 = DIRECTION ( 'NONE',  ( -3.760204894471739808E-30, 1.000000000000000000, -1.058403585098727665E-15 ) ) ;
#203 = LOCAL_TIME ( 14, 1, 37.00000000000000000, #98 ) ;
#204 = DIRECTION ( 'NONE',  ( -3.491481338843133355E-15, 1.049697256412017316E-16, -1.000000000000000000 ) ) ;
#205 = CIRCLE ( 'NONE', #198, 1.638999999999999790 ) ;
#206 = CARTESIAN_POINT ( 'NONE',  ( 2.444036937190193601E-13, 1.199999999999990186, 70.00000000000000000 ) ) ;
#207 = CARTESIAN_POINT ( 'NONE',  ( 3.869445280877825814E-14, -1.163330317703974832E-15, 11.08253175473057794 ) ) ;
#208 = FACE_BOUND ( 'NONE', #236, .T. ) ;
#209 = CARTESIAN_POINT ( 'NONE',  ( 0.0000000000000000000, 0.0000000000000000000, 0.0000000000000000000 ) ) ;
#210 = ORIENTED_EDGE ( 'NONE', *, *, #95, .F. ) ;
#211 = PERSON_AND_ORGANIZATION_ROLE ( 'design_owner' ) ;
#212 = PERSON_AND_ORGANIZATION_ROLE ( 'creator' ) ;
#213 = PERSON_AND_ORGANIZATION ( #140, #154 ) ;
#214 = AXIS2_PLACEMENT_3D ( 'NONE', #132, #149, #51 ) ;
#215 = DIRECTION ( 'NONE',  ( -1.905526996640015858E-30, 1.000000000000000000, -5.457646230099550631E-16 ) ) ;
#216 = ORIENTED_EDGE ( 'NONE', *, *, #95, .T. ) ;
#217 = ORIENTED_EDGE ( 'NONE', *, *, #67, .F. ) ;
#218 = CC_DESIGN_PERSON_AND_ORGANIZATION_ASSIGNMENT ( #160, #99, ( #219 ) ) ;
#219 = SECURITY_CLASSIFICATION ( '', '', #97 ) ;
#220 = FACE_OUTER_BOUND ( 'NONE', #200, .T. ) ;
#221 = DIRECTION ( 'NONE',  ( 3.491481338843133355E-15, 5.457646230099550631E-16, 1.000000000000000000 ) ) ;
#222 = AXIS2_PLACEMENT_3D ( 'NONE', #185, #15, #161 ) ;
#223 = PLANE ( 'NONE',  #214 ) ;
#224 = AXIS2_PLACEMENT_3D ( 'NONE', #123, #221, #48 ) ;
#225 = CARTESIAN_POINT ( 'NONE',  ( 3.785386100169306902E-14, 1.638999999999998680, 10.84177669247848819 ) ) ;
#226 =( LENGTH_UNIT ( ) NAMED_UNIT ( * ) SI_UNIT ( .MILLI., .METRE. ) );
#227 = ADVANCED_FACE ( 'NONE', ( #243, #208 ), #96, .T. ) ;
#228 = DIRECTION ( 'NONE',  ( -3.491481338843133355E-15, -5.457646230099550631E-16, -1.000000000000000000 ) ) ;
#229 = CONICAL_SURFACE ( 'NONE', #128, 1.638999999999999790, 0.5235987755982934866 ) ;
#230 = APPROVAL_ROLE ( '' ) ;
#231 = APPROVAL_DATE_TIME ( #59, #9 ) ;
#232 = APPLICATION_CONTEXT ( 'configuration controlled 3d designs of mechanical parts and assemblies' ) ;
#233 = APPROVAL_STATUS ( 'not_yet_approved' ) ;
#234 = CARTESIAN_POINT ( 'NONE',  ( 2.658846033740114726E-30, 4.156127335128465803E-31, 7.615237704867975928E-16 ) ) ;
#235 = AXIS2_PLACEMENT_3D ( 'NONE', #71, #153, #19 ) ;
#236 = EDGE_LOOP ( 'NONE', ( #210 ) ) ;
#237 = EDGE_CURVE ( 'NONE', #112, #112, #41, .T. ) ;
#238 = DIRECTION ( 'NONE',  ( -3.491481338843133355E-15, 1.049697256412017316E-16, -1.000000000000000000 ) ) ;
#239 = EDGE_LOOP ( 'NONE', ( #183 ) ) ;
#240 = DIRECTION ( 'NONE',  ( -3.664998382197393967E-31, -1.000000000000000000, -1.049697256412017316E-16 ) ) ;
#241 = EDGE_CURVE ( 'NONE', #76, #76, #130, .T. ) ;
#242 = FACE_OUTER_BOUND ( 'NONE', #166, .T. ) ;
#243 = FACE_OUTER_BOUND ( 'NONE', #12, .T. ) ;
ENDSEC;
END-ISO-10303-21;
