ISO-10303-21;
HEADER;
FILE_DESCRIPTION (( 'STEP AP203' ),
    '1' );
FILE_NAME ('321230.step',
    '2021-11-26T13:01:36',
    ( '' ),
    ( '' ),
    'SwSTEP 2.0',
    'SolidWorks 2019',
    '' );
FILE_SCHEMA (( 'CONFIG_CONTROL_DESIGN' ));
ENDSEC;

DATA;
#1 = LOCAL_TIME ( 14, 1, 36.00000000000000000, #128 ) ;
#2 = EDGE_LOOP ( 'NONE', ( #55 ) ) ;
#3 = CALENDAR_DATE ( 2021, 26, 11 ) ;
#4 = PRODUCT ( '321230', '321230', '', ( #32 ) ) ;
#5 = DIRECTION ( 'NONE',  ( -3.491481338843133355E-15, 1.049697256412017316E-16, -1.000000000000000000 ) ) ;
#6 = ORIENTED_EDGE ( 'NONE', *, *, #49, .T. ) ;
#7 = DIRECTION ( 'NONE',  ( -3.491481338843133355E-15, 1.049697256412017316E-16, -1.000000000000000000 ) ) ;
#8 = CARTESIAN_POINT ( 'NONE',  ( 2.444036937190193601E-13, -7.347880794884121511E-15, 70.00000000000000000 ) ) ;
#9 = DIRECTION ( 'NONE',  ( -3.491481338843133355E-15, 1.049697256412017316E-16, -1.000000000000000000 ) ) ;
#10 = VERTEX_POINT ( 'NONE', #64 ) ;
#11 = DIRECTION ( 'NONE',  ( -3.491481338843133355E-15, -5.451335322261147908E-16, -1.000000000000000000 ) ) ;
#12 = DIRECTION ( 'NONE',  ( 1.000000000000000000, 0.0000000000000000000, 0.0000000000000000000 ) ) ;
#13 = DATE_AND_TIME ( #133, #103 ) ;
#14 = PERSON ( 'UNSPECIFIED', 'UNSPECIFIED', 'UNSPECIFIED', ('UNSPECIFIED'), ('UNSPECIFIED'), ('UNSPECIFIED') ) ;
#15 = AXIS2_PLACEMENT_3D ( 'NONE', #163, #220, #184 ) ;
#16 = DIRECTION ( 'NONE',  ( 1.903323554945121557E-30, -1.000000000000000000, 5.451335322261147908E-16 ) ) ;
#17 = AXIS2_PLACEMENT_3D ( 'NONE', #8, #9, #101 ) ;
#18 = PERSON_AND_ORGANIZATION_ROLE ( 'creator' ) ;
#19 = ORIENTED_EDGE ( 'NONE', *, *, #181, .F. ) ;
#20 = ADVANCED_FACE ( 'NONE', ( #78, #97 ), #124, .T. ) ;
#21 = ORIENTED_EDGE ( 'NONE', *, *, #182, .T. ) ;
#22 = AXIS2_PLACEMENT_3D ( 'NONE', #178, #24, #104 ) ;
#23 = EDGE_LOOP ( 'NONE', ( #34 ) ) ;
#24 = DIRECTION ( 'NONE',  ( -3.491481338843133355E-15, -5.451335322261147908E-16, -1.000000000000000000 ) ) ;
#25 = CARTESIAN_POINT ( 'NONE',  ( 2.646036014441379969E-30, 4.131320831942006207E-31, 7.578548351394359925E-16 ) ) ;
#26 = FACE_BOUND ( 'NONE', #154, .T. ) ;
#27 = AXIS2_PLACEMENT_3D ( 'NONE', #35, #207, #12 ) ;
#28 = PLANE ( 'NONE',  #88 ) ;
#29 = DATE_AND_TIME ( #72, #1 ) ;
#30 = CC_DESIGN_APPROVAL ( #233, ( #219 ) ) ;
#31 = CC_DESIGN_DATE_AND_TIME_ASSIGNMENT ( #56, #53, ( #109 ) ) ;
#32 = MECHANICAL_CONTEXT ( 'NONE', #203, 'mechanical' ) ;
#33 = CONICAL_SURFACE ( 'NONE', #43, 1.489662432702592465, 0.5235987755982971503 ) ;
#34 = ORIENTED_EDGE ( 'NONE', *, *, #140, .F. ) ;
#35 = CARTESIAN_POINT ( 'NONE',  ( 0.0000000000000000000, 0.0000000000000000000, 0.0000000000000000000 ) ) ;
#36 = DIRECTION ( 'NONE',  ( -3.664998382197393967E-31, -1.000000000000000000, -1.049697256412017316E-16 ) ) ;
#37 = SECURITY_CLASSIFICATION_LEVEL ( 'unclassified' ) ;
#38 = LOCAL_TIME ( 14, 1, 36.00000000000000000, #152 ) ;
#39 = CC_DESIGN_PERSON_AND_ORGANIZATION_ASSIGNMENT ( #205, #243, ( #219 ) ) ;
#40 = FACE_OUTER_BOUND ( 'NONE', #57, .T. ) ;
#41 = EDGE_LOOP ( 'NONE', ( #42 ) ) ;
#42 = ORIENTED_EDGE ( 'NONE', *, *, #210, .T. ) ;
#43 = AXIS2_PLACEMENT_3D ( 'NONE', #126, #100, #177 ) ;
#44 = CARTESIAN_POINT ( 'NONE',  ( 2.433562493173664138E-13, 1.499999999999990230, 69.70000000000001705 ) ) ;
#45 = VERTEX_POINT ( 'NONE', #66 ) ;
#46 = CARTESIAN_POINT ( 'NONE',  ( 8.728703347107862970E-16, 1.362833830565291414E-16, 0.2500000000000008327 ) ) ;
#47 = CARTESIAN_POINT ( 'NONE',  ( 3.869445280877825814E-14, -1.163330317703974832E-15, 11.08253175473057794 ) ) ;
#48 = AXIS2_PLACEMENT_3D ( 'NONE', #195, #105, #50 ) ;
#49 = EDGE_CURVE ( 'NONE', #10, #10, #241, .T. ) ;
#50 = DIRECTION ( 'NONE',  ( 0.0000000000000000000, 1.000000000000000000, 0.0000000000000000000 ) ) ;
#51 = PERSON_AND_ORGANIZATION ( #14, #185 ) ;
#52 = PERSON_AND_ORGANIZATION_ROLE ( 'creator' ) ;
#53 = DATE_TIME_ROLE ( 'creation_date' ) ;
#54 = CIRCLE ( 'NONE', #17, 1.199999999999997513 ) ;
#55 = ORIENTED_EDGE ( 'NONE', *, *, #242, .F. ) ;
#56 = DATE_AND_TIME ( #224, #38 ) ;
#57 = EDGE_LOOP ( 'NONE', ( #117 ) ) ;
#58 = PERSON_AND_ORGANIZATION ( #14, #185 ) ;
#59 = ADVANCED_FACE ( 'NONE', ( #158 ), #61, .T. ) ;
#60 = ADVANCED_FACE ( 'NONE', ( #93 ), #170, .T. ) ;
#61 = PLANE ( 'NONE',  #82 ) ;
#62 = DIRECTION ( 'NONE',  ( -3.771711029399744393E-30, 1.000000000000000000, -1.061642274159617421E-15 ) ) ;
#63 = APPROVAL_PERSON_ORGANIZATION ( #51, #233, #106 ) ;
#64 = CARTESIAN_POINT ( 'NONE',  ( 3.788409811705585037E-14, 1.633999999999998565, 10.85043694651633395 ) ) ;
#65 = DIRECTION ( 'NONE',  ( -1.903323554945121557E-30, 1.000000000000000000, -5.451335322261147908E-16 ) ) ;
#66 = CARTESIAN_POINT ( 'NONE',  ( 2.444036937190193601E-13, 1.199999999999990186, 70.00000000000000000 ) ) ;
#67 = VERTEX_POINT ( 'NONE', #44 ) ;
#68 = COORDINATED_UNIVERSAL_TIME_OFFSET ( 1, 0, .AHEAD. ) ;
#69 = DATE_AND_TIME ( #239, #143 ) ;
#70 = CLOSED_SHELL ( 'NONE', ( #59, #85, #157, #102 ) ) ;
#71 = AXIS2_PLACEMENT_3D ( 'NONE', #174, #74, #36 ) ;
#72 = CALENDAR_DATE ( 2021, 26, 11 ) ;
#73 = APPROVAL_PERSON_ORGANIZATION ( #191, #129, #107 ) ;
#74 = DIRECTION ( 'NONE',  ( 3.491481338843133355E-15, -1.049697256412017316E-16, 1.000000000000000000 ) ) ;
#75 = ADVANCED_FACE ( 'NONE', ( #112, #190 ), #171, .T. ) ;
#76 =( NAMED_UNIT ( * ) SI_UNIT ( $, .STERADIAN. ) SOLID_ANGLE_UNIT ( ) );
#77 = EDGE_LOOP ( 'NONE', ( #141 ) ) ;
#78 = FACE_BOUND ( 'NONE', #228, .T. ) ;
#79 = EDGE_LOOP ( 'NONE', ( #193 ) ) ;
#80 = EDGE_LOOP ( 'NONE', ( #110 ) ) ;
#81 = DIRECTION ( 'NONE',  ( -3.491481338843133355E-15, -5.451335322261147908E-16, -1.000000000000000000 ) ) ;
#82 = AXIS2_PLACEMENT_3D ( 'NONE', #211, #156, #16 ) ;
#83 = DIRECTION ( 'NONE',  ( 0.0000000000000000000, 1.000000000000000000, 0.0000000000000000000 ) ) ;
#84 = CC_DESIGN_PERSON_AND_ORGANIZATION_ASSIGNMENT ( #238, #165, ( #4 ) ) ;
#85 = ADVANCED_FACE ( 'NONE', ( #214, #40 ), #192, .T. ) ;
#86 = FACE_OUTER_BOUND ( 'NONE', #79, .T. ) ;
#87 = FACE_BOUND ( 'NONE', #2, .T. ) ;
#88 = AXIS2_PLACEMENT_3D ( 'NONE', #180, #81, #65 ) ;
#89 = DATE_AND_TIME ( #3, #98 ) ;
#90 = PERSON_AND_ORGANIZATION ( #14, #185 ) ;
#91 = PRODUCT_DEFINITION_SHAPE ( 'NONE', 'NONE',  #109 ) ;
#92 = CC_DESIGN_PERSON_AND_ORGANIZATION_ASSIGNMENT ( #90, #155, ( #164 ) ) ;
#93 = FACE_OUTER_BOUND ( 'NONE', #215, .T. ) ;
#94 = CC_DESIGN_APPROVAL ( #129, ( #164 ) ) ;
#95 = DIRECTION ( 'NONE',  ( -3.491481338843133355E-15, 1.049697256412017316E-16, -1.000000000000000000 ) ) ;
#96 = EDGE_LOOP ( 'NONE', ( #176 ) ) ;
#97 = FACE_OUTER_BOUND ( 'NONE', #23, .T. ) ;
#98 = LOCAL_TIME ( 14, 1, 36.00000000000000000, #68 ) ;
#99 = ORIENTED_EDGE ( 'NONE', *, *, #181, .T. ) ;
#100 = DIRECTION ( 'NONE',  ( 3.491481338843133355E-15, 5.451335322261147908E-16, 1.000000000000000000 ) ) ;
#101 = DIRECTION ( 'NONE',  ( 0.0000000000000000000, 1.000000000000000000, 0.0000000000000000000 ) ) ;
#102 = ADVANCED_FACE ( 'NONE', ( #201 ), #28, .T. ) ;
#103 = LOCAL_TIME ( 14, 1, 36.00000000000000000, #186 ) ;
#104 = DIRECTION ( 'NONE',  ( -1.903323554945121557E-30, 1.000000000000000000, -5.451335322261146922E-16 ) ) ;
#105 = DIRECTION ( 'NONE',  ( -3.491481338843133355E-15, 1.049697256412017316E-16, -1.000000000000000000 ) ) ;
#106 = APPROVAL_ROLE ( '' ) ;
#107 = APPROVAL_ROLE ( '' ) ;
#108 = APPROVAL_STATUS ( 'not_yet_approved' ) ;
#109 = PRODUCT_DEFINITION ( 'UNKNOWN', '', #164, #208 ) ;
#110 = ORIENTED_EDGE ( 'NONE', *, *, #242, .T. ) ;
#111 = APPROVAL_DATE_TIME ( #69, #233 ) ;
#112 = FACE_OUTER_BOUND ( 'NONE', #173, .T. ) ;
#113 = CIRCLE ( 'NONE', #179, 1.633999999999992569 ) ;
#114 = COORDINATED_UNIVERSAL_TIME_OFFSET ( 1, 0, .AHEAD. ) ;
#115 = DIRECTION ( 'NONE',  ( 0.0000000000000000000, 1.000000000000000000, 0.0000000000000000000 ) ) ;
#116 = ADVANCED_BREP_SHAPE_REPRESENTATION ( '321230', ( #204, #121, #27 ), #175 ) ;
#117 = ORIENTED_EDGE ( 'NONE', *, *, #150, .F. ) ;
#118 = CC_DESIGN_PERSON_AND_ORGANIZATION_ASSIGNMENT ( #169, #18, ( #109 ) ) ;
#119 = ORIENTED_EDGE ( 'NONE', *, *, #182, .F. ) ;
#120 = VERTEX_POINT ( 'NONE', #162 ) ;
#121 = MANIFOLD_SOLID_BREP ( 'Corps-Déplacer/Copier1[2]', #70 ) ;
#122 = VERTEX_POINT ( 'NONE', #146 ) ;
#123 = DIRECTION ( 'NONE',  ( -1.903323554945121557E-30, 1.000000000000000000, -5.451335322261147908E-16 ) ) ;
#124 = CONICAL_SURFACE ( 'NONE', #147, 1.499999999999997558, 0.7853981633974573828 ) ;
#125 = VERTEX_POINT ( 'NONE', #197 ) ;
#126 = CARTESIAN_POINT ( 'NONE',  ( 2.646036014441379969E-30, 4.131320831942006207E-31, 7.578548351394359925E-16 ) ) ;
#127 = AXIS2_PLACEMENT_3D ( 'NONE', #46, #11, #221 ) ;
#128 = COORDINATED_UNIVERSAL_TIME_OFFSET ( 1, 0, .AHEAD. ) ;
#129 = APPROVAL ( #188, 'UNSPECIFIED' ) ;
#130 = APPLICATION_PROTOCOL_DEFINITION ( 'international standard', 'config_control_design', 1994, #203 ) ;
#131 = AXIS2_PLACEMENT_3D ( 'NONE', #229, #5, #136 ) ;
#132 = CARTESIAN_POINT ( 'NONE',  ( 3.788409811705585037E-14, -1.138967389362978375E-15, 10.85043694651633395 ) ) ;
#133 = CALENDAR_DATE ( 2021, 26, 11 ) ;
#134 = EDGE_LOOP ( 'NONE', ( #6 ) ) ;
#135 = APPROVAL_ROLE ( '' ) ;
#136 = DIRECTION ( 'NONE',  ( 3.664998382197393967E-31, 1.000000000000000000, 1.049697256412017316E-16 ) ) ;
#137 = APPROVAL_PERSON_ORGANIZATION ( #227, #166, #135 ) ;
#138 = CC_DESIGN_PERSON_AND_ORGANIZATION_ASSIGNMENT ( #58, #52, ( #164 ) ) ;
#139 = EDGE_LOOP ( 'NONE', ( #119 ) ) ;
#140 = EDGE_CURVE ( 'NONE', #67, #67, #237, .T. ) ;
#141 = ORIENTED_EDGE ( 'NONE', *, *, #150, .T. ) ;
#142 = DIRECTION ( 'NONE',  ( -3.491481338843133355E-15, -5.451335322261147908E-16, -1.000000000000000000 ) ) ;
#143 = LOCAL_TIME ( 14, 1, 36.00000000000000000, #114 ) ;
#144 = DIRECTION ( 'NONE',  ( -3.491481338843133355E-15, 1.049697256412017316E-16, -1.000000000000000000 ) ) ;
#145 = CARTESIAN_POINT ( 'NONE',  ( 3.788409811705585669E-14, 1.633999999999998565, 10.85043694651633572 ) ) ;
#146 = CARTESIAN_POINT ( 'NONE',  ( 3.788409811705585037E-14, 1.633999999999998565, 10.85043694651633395 ) ) ;
#147 = AXIS2_PLACEMENT_3D ( 'NONE', #159, #7, #115 ) ;
#148 =( NAMED_UNIT ( * ) PLANE_ANGLE_UNIT ( ) SI_UNIT ( $, .RADIAN. ) );
#149 = APPROVAL_DATE_TIME ( #89, #166 ) ;
#150 = EDGE_CURVE ( 'NONE', #120, #120, #226, .T. ) ;
#151 = SHAPE_DEFINITION_REPRESENTATION ( #91, #116 ) ;
#152 = COORDINATED_UNIVERSAL_TIME_OFFSET ( 1, 0, .AHEAD. ) ;
#153 = CIRCLE ( 'NONE', #222, 1.489662432702592465 ) ;
#154 = EDGE_LOOP ( 'NONE', ( #21 ) ) ;
#155 = PERSON_AND_ORGANIZATION_ROLE ( 'design_supplier' ) ;
#156 = DIRECTION ( 'NONE',  ( 3.491481338843133355E-15, 5.451335322261147908E-16, 1.000000000000000000 ) ) ;
#157 = ADVANCED_FACE ( 'NONE', ( #236, #87 ), #33, .T. ) ;
#158 = FACE_OUTER_BOUND ( 'NONE', #96, .T. ) ;
#159 = CARTESIAN_POINT ( 'NONE',  ( 2.433562493173664138E-13, -7.316389877191761450E-15, 69.70000000000001705 ) ) ;
#160 = FACE_OUTER_BOUND ( 'NONE', #134, .T. ) ;
#161 = CC_DESIGN_SECURITY_CLASSIFICATION ( #219, ( #164 ) ) ;
#162 = CARTESIAN_POINT ( 'NONE',  ( 8.728703347107831416E-16, 1.633999999999998565, 0.2499999999999999445 ) ) ;
#163 = CARTESIAN_POINT ( 'NONE',  ( 3.788409811705585037E-14, -1.138967389362978375E-15, 10.85043694651633395 ) ) ;
#164 = PRODUCT_DEFINITION_FORMATION_WITH_SPECIFIED_SOURCE ( 'ANY', '', #4, .NOT_KNOWN. ) ;
#165 = PERSON_AND_ORGANIZATION_ROLE ( 'design_owner' ) ;
#166 = APPROVAL ( #108, 'UNSPECIFIED' ) ;
#167 = DATE_TIME_ROLE ( 'classification_date' ) ;
#168 = AXIS2_PLACEMENT_3D ( 'NONE', #145, #144, #235 ) ;
#169 = PERSON_AND_ORGANIZATION ( #14, #185 ) ;
#170 = PLANE ( 'NONE',  #71 ) ;
#171 = CYLINDRICAL_SURFACE ( 'NONE', #131, 1.499999999999995337 ) ;
#172 = ADVANCED_FACE ( 'NONE', ( #26, #86 ), #206, .T. ) ;
#173 = EDGE_LOOP ( 'NONE', ( #216 ) ) ;
#174 = CARTESIAN_POINT ( 'NONE',  ( 2.444036937190193601E-13, -7.347880794884121511E-15, 70.00000000000000000 ) ) ;
#175 =( GEOMETRIC_REPRESENTATION_CONTEXT ( 3 ) GLOBAL_UNCERTAINTY_ASSIGNED_CONTEXT ( ( #225 ) ) GLOBAL_UNIT_ASSIGNED_CONTEXT ( ( #183, #148, #76 ) ) REPRESENTATION_CONTEXT ( 'NONE', 'WORKASPACE' ) );
#176 = ORIENTED_EDGE ( 'NONE', *, *, #210, .F. ) ;
#177 = DIRECTION ( 'NONE',  ( 1.903323554945121557E-30, -1.000000000000000000, 5.451335322261147908E-16 ) ) ;
#178 = CARTESIAN_POINT ( 'NONE',  ( 0.0000000000000000000, 0.0000000000000000000, 0.0000000000000000000 ) ) ;
#179 = AXIS2_PLACEMENT_3D ( 'NONE', #218, #202, #62 ) ;
#180 = CARTESIAN_POINT ( 'NONE',  ( -1.512291589859006098E-30, 1.489662432702592465, -4.331375261939932180E-16 ) ) ;
#181 = EDGE_CURVE ( 'NONE', #45, #45, #54, .T. ) ;
#182 = EDGE_CURVE ( 'NONE', #125, #125, #209, .T. ) ;
#183 =( LENGTH_UNIT ( ) NAMED_UNIT ( * ) SI_UNIT ( .MILLI., .METRE. ) );
#184 = DIRECTION ( 'NONE',  ( 0.0000000000000000000, 1.000000000000000000, 0.0000000000000000000 ) ) ;
#185 = ORGANIZATION ( 'UNSPECIFIED', 'UNSPECIFIED', '' ) ;
#186 = COORDINATED_UNIVERSAL_TIME_OFFSET ( 1, 0, .AHEAD. ) ;
#187 = APPROVAL_STATUS ( 'not_yet_approved' ) ;
#188 = APPROVAL_STATUS ( 'not_yet_approved' ) ;
#189 = DIRECTION ( 'NONE',  ( 0.0000000000000000000, 1.000000000000000000, 0.0000000000000000000 ) ) ;
#190 = FACE_OUTER_BOUND ( 'NONE', #139, .T. ) ;
#191 = PERSON_AND_ORGANIZATION ( #14, #185 ) ;
#192 = CYLINDRICAL_SURFACE ( 'NONE', #22, 1.633999999999995456 ) ;
#193 = ORIENTED_EDGE ( 'NONE', *, *, #49, .F. ) ;
#194 = AXIS2_PLACEMENT_3D ( 'NONE', #47, #232, #83 ) ;
#195 = CARTESIAN_POINT ( 'NONE',  ( 2.433562493173664138E-13, -7.316389877191761450E-15, 69.70000000000001705 ) ) ;
#196 = VERTEX_POINT ( 'NONE', #234 ) ;
#197 = CARTESIAN_POINT ( 'NONE',  ( 3.869445280877825814E-14, 1.499999999999991562, 11.08253175473057794 ) ) ;
#198 = CC_DESIGN_DATE_AND_TIME_ASSIGNMENT ( #29, #167, ( #219 ) ) ;
#199 = ADVANCED_FACE ( 'NONE', ( #160 ), #231, .T. ) ;
#200 = AXIS2_PLACEMENT_3D ( 'NONE', #132, #95, #189 ) ;
#201 = FACE_OUTER_BOUND ( 'NONE', #80, .T. ) ;
#202 = DIRECTION ( 'NONE',  ( -3.491481338843133355E-15, -5.451335322261147908E-16, -1.000000000000000000 ) ) ;
#203 = APPLICATION_CONTEXT ( 'configuration controlled 3d designs of mechanical parts and assemblies' ) ;
#204 = MANIFOLD_SOLID_BREP ( 'Corps-Déplacer/Copier1[1]', #230 ) ;
#205 = PERSON_AND_ORGANIZATION ( #14, #185 ) ;
#206 = CONICAL_SURFACE ( 'NONE', #15, 1.633999999999999675, 0.5235987755982940417 ) ;
#207 = DIRECTION ( 'NONE',  ( 0.0000000000000000000, 0.0000000000000000000, 1.000000000000000000 ) ) ;
#208 = DESIGN_CONTEXT ( 'detailed design', #217, 'design' ) ;
#209 = CIRCLE ( 'NONE', #194, 1.499999999999992673 ) ;
#210 = EDGE_CURVE ( 'NONE', #122, #122, #113, .T. ) ;
#211 = CARTESIAN_POINT ( 'NONE',  ( 3.788409811705585669E-14, 5.914937018851188541E-15, 10.85043694651633572 ) ) ;
#212 = APPROVAL_DATE_TIME ( #13, #129 ) ;
#213 = CC_DESIGN_APPROVAL ( #166, ( #109 ) ) ;
#214 = FACE_OUTER_BOUND ( 'NONE', #41, .T. ) ;
#215 = EDGE_LOOP ( 'NONE', ( #19 ) ) ;
#216 = ORIENTED_EDGE ( 'NONE', *, *, #140, .T. ) ;
#217 = APPLICATION_CONTEXT ( 'configuration controlled 3d designs of mechanical parts and assemblies' ) ;
#218 = CARTESIAN_POINT ( 'NONE',  ( 3.788409811705585669E-14, 5.914937018851189330E-15, 10.85043694651633572 ) ) ;
#219 = SECURITY_CLASSIFICATION ( '', '', #37 ) ;
#220 = DIRECTION ( 'NONE',  ( -3.491481338843133355E-15, 1.049697256412017316E-16, -1.000000000000000000 ) ) ;
#221 = DIRECTION ( 'NONE',  ( -1.885855514699865540E-30, 1.000000000000000000, -5.308211370798068368E-16 ) ) ;
#222 = AXIS2_PLACEMENT_3D ( 'NONE', #25, #142, #123 ) ;
#223 = APPLICATION_PROTOCOL_DEFINITION ( 'international standard', 'config_control_design', 1994, #217 ) ;
#224 = CALENDAR_DATE ( 2021, 26, 11 ) ;
#225 = UNCERTAINTY_MEASURE_WITH_UNIT (LENGTH_MEASURE( 1.000000000000000082E-05 ), #183, 'distance_accuracy_value', 'NONE');
#226 = CIRCLE ( 'NONE', #127, 1.633999999999998343 ) ;
#227 = PERSON_AND_ORGANIZATION ( #14, #185 ) ;
#228 = EDGE_LOOP ( 'NONE', ( #99 ) ) ;
#229 = CARTESIAN_POINT ( 'NONE',  ( 0.0000000000000000000, 0.0000000000000000000, 0.0000000000000000000 ) ) ;
#230 = CLOSED_SHELL ( 'NONE', ( #60, #20, #75, #172, #199 ) ) ;
#231 = PLANE ( 'NONE',  #168 ) ;
#232 = DIRECTION ( 'NONE',  ( -3.491481338843133355E-15, 1.049697256412017316E-16, -1.000000000000000000 ) ) ;
#233 = APPROVAL ( #187, 'UNSPECIFIED' ) ;
#234 = CARTESIAN_POINT ( 'NONE',  ( -1.892735826383161356E-31, 1.489662432702592465, -5.421010862427522170E-17 ) ) ;
#235 = DIRECTION ( 'NONE',  ( 3.664998382197393967E-31, 1.000000000000000000, 1.049697256412017316E-16 ) ) ;
#236 = FACE_OUTER_BOUND ( 'NONE', #77, .T. ) ;
#237 = CIRCLE ( 'NONE', #48, 1.499999999999997558 ) ;
#238 = PERSON_AND_ORGANIZATION ( #14, #185 ) ;
#239 = CALENDAR_DATE ( 2021, 26, 11 ) ;
#240 = PRODUCT_RELATED_PRODUCT_CATEGORY ( 'detail', '', ( #4 ) ) ;
#241 = CIRCLE ( 'NONE', #200, 1.633999999999999675 ) ;
#242 = EDGE_CURVE ( 'NONE', #196, #196, #153, .T. ) ;
#243 = PERSON_AND_ORGANIZATION_ROLE ( 'classification_officer' ) ;
ENDSEC;
END-ISO-10303-21;
