ISO-10303-21;
HEADER;
FILE_DESCRIPTION (( 'STEP AP203' ),
    '1' );
FILE_NAME ('321229.step',
    '2021-11-26T13:01:36',
    ( '' ),
    ( '' ),
    'SwSTEP 2.0',
    'SolidWorks 2019',
    '' );
FILE_SCHEMA (( 'CONFIG_CONTROL_DESIGN' ));
ENDSEC;

DATA;
#1 = CALENDAR_DATE ( 2021, 26, 11 ) ;
#2 = PERSON_AND_ORGANIZATION ( #89, #237 ) ;
#3 = VERTEX_POINT ( 'NONE', #123 ) ;
#4 = AXIS2_PLACEMENT_3D ( 'NONE', #117, #238, #18 ) ;
#5 = APPROVAL_ROLE ( '' ) ;
#6 = VERTEX_POINT ( 'NONE', #64 ) ;
#7 = ORIENTED_EDGE ( 'NONE', *, *, #56, .F. ) ;
#8 = CIRCLE ( 'NONE', #107, 1.628999999999992898 ) ;
#9 = CARTESIAN_POINT ( 'NONE',  ( 3.791433523241862542E-14, 1.628999999999998671, 10.85909720055417971 ) ) ;
#10 = DATE_TIME_ROLE ( 'classification_date' ) ;
#11 = ORIENTED_EDGE ( 'NONE', *, *, #209, .F. ) ;
#12 = PRODUCT_DEFINITION_FORMATION_WITH_SPECIFIED_SOURCE ( 'ANY', '', #229, .NOT_KNOWN. ) ;
#13 = CARTESIAN_POINT ( 'NONE',  ( 2.633253247464853389E-30, 4.106610729585939017E-31, 7.541937051673760278E-16 ) ) ;
#14 = DIRECTION ( 'NONE',  ( 0.0000000000000000000, 1.000000000000000000, 0.0000000000000000000 ) ) ;
#15 = CC_DESIGN_PERSON_AND_ORGANIZATION_ASSIGNMENT ( #120, #195, ( #12 ) ) ;
#16 = CARTESIAN_POINT ( 'NONE',  ( 3.791433523241861911E-14, -1.139876453853313704E-15, 10.85909720055417793 ) ) ;
#17 = CIRCLE ( 'NONE', #183, 1.484662432702592572 ) ;
#18 = DIRECTION ( 'NONE',  ( -1.901123627790060557E-30, 1.000000000000000000, -5.445034480464896470E-16 ) ) ;
#19 = DIRECTION ( 'NONE',  ( -3.491481338843133355E-15, -5.445034480464897456E-16, -1.000000000000000000 ) ) ;
#20 = COORDINATED_UNIVERSAL_TIME_OFFSET ( 1, 0, .AHEAD. ) ;
#21 = CLOSED_SHELL ( 'NONE', ( #176, #163, #62, #138, #32 ) ) ;
#22 = CARTESIAN_POINT ( 'NONE',  ( 3.791433523241861911E-14, 1.628999999999998671, 10.85909720055417793 ) ) ;
#23 = PERSON_AND_ORGANIZATION ( #89, #237 ) ;
#24 = AXIS2_PLACEMENT_3D ( 'NONE', #189, #134, #113 ) ;
#25 = DATE_TIME_ROLE ( 'creation_date' ) ;
#26 = ORIENTED_EDGE ( 'NONE', *, *, #83, .F. ) ;
#27 = EDGE_LOOP ( 'NONE', ( #204 ) ) ;
#28 = LOCAL_TIME ( 14, 1, 36.00000000000000000, #136 ) ;
#29 = ORIENTED_EDGE ( 'NONE', *, *, #167, .F. ) ;
#30 = DIRECTION ( 'NONE',  ( -3.491481338843133355E-15, -5.445034480464897456E-16, -1.000000000000000000 ) ) ;
#31 = APPROVAL_PERSON_ORGANIZATION ( #119, #98, #5 ) ;
#32 = ADVANCED_FACE ( 'NONE', ( #235 ), #219, .T. ) ;
#33 = DIRECTION ( 'NONE',  ( 1.901123627790060557E-30, -1.000000000000000000, 5.445034480464897456E-16 ) ) ;
#34 = DIRECTION ( 'NONE',  ( 0.0000000000000000000, 1.000000000000000000, 0.0000000000000000000 ) ) ;
#35 = DIRECTION ( 'NONE',  ( -3.491481338843133355E-15, -5.445034480464897456E-16, -1.000000000000000000 ) ) ;
#36 = SECURITY_CLASSIFICATION ( '', '', #157 ) ;
#37 = DIRECTION ( 'NONE',  ( 3.491481338843133355E-15, -1.049697256412017316E-16, 1.000000000000000000 ) ) ;
#38 = MANIFOLD_SOLID_BREP ( 'Corps-Déplacer/Copier1[2]', #86 ) ;
#39 = PERSON_AND_ORGANIZATION_ROLE ( 'design_owner' ) ;
#40 = APPROVAL_DATE_TIME ( #213, #184 ) ;
#41 = ADVANCED_BREP_SHAPE_REPRESENTATION ( '321229', ( #45, #38, #210 ), #103 ) ;
#42 = CIRCLE ( 'NONE', #232, 1.199999999999997513 ) ;
#43 = DATE_AND_TIME ( #1, #226 ) ;
#44 = CC_DESIGN_DATE_AND_TIME_ASSIGNMENT ( #46, #25, ( #202 ) ) ;
#45 = MANIFOLD_SOLID_BREP ( 'Corps-Déplacer/Copier1[1]', #21 ) ;
#46 = DATE_AND_TIME ( #87, #218 ) ;
#47 = AXIS2_PLACEMENT_3D ( 'NONE', #9, #90, #49 ) ;
#48 = ORIENTED_EDGE ( 'NONE', *, *, #209, .T. ) ;
#49 = DIRECTION ( 'NONE',  ( 3.664998382197393967E-31, 1.000000000000000000, 1.049697256412017316E-16 ) ) ;
#50 = CIRCLE ( 'NONE', #214, 1.499999999999997558 ) ;
#51 = CC_DESIGN_PERSON_AND_ORGANIZATION_ASSIGNMENT ( #2, #84, ( #12 ) ) ;
#52 = EDGE_LOOP ( 'NONE', ( #124 ) ) ;
#53 = CALENDAR_DATE ( 2021, 26, 11 ) ;
#54 = EDGE_LOOP ( 'NONE', ( #181 ) ) ;
#55 = UNCERTAINTY_MEASURE_WITH_UNIT (LENGTH_MEASURE( 1.000000000000000082E-05 ), #135, 'distance_accuracy_value', 'NONE');
#56 = EDGE_CURVE ( 'NONE', #241, #241, #42, .T. ) ;
#57 = LOCAL_TIME ( 14, 1, 36.00000000000000000, #145 ) ;
#58 = FACE_OUTER_BOUND ( 'NONE', #200, .T. ) ;
#59 = FACE_OUTER_BOUND ( 'NONE', #112, .T. ) ;
#60 = CARTESIAN_POINT ( 'NONE',  ( 0.0000000000000000000, 0.0000000000000000000, 0.0000000000000000000 ) ) ;
#61 = DIRECTION ( 'NONE',  ( -3.491481338843133355E-15, 1.049697256412017316E-16, -1.000000000000000000 ) ) ;
#62 = ADVANCED_FACE ( 'NONE', ( #239, #59 ), #132, .T. ) ;
#63 = ADVANCED_FACE ( 'NONE', ( #129, #96 ), #193, .T. ) ;
#64 = CARTESIAN_POINT ( 'NONE',  ( 2.433562493173664138E-13, 1.499999999999990230, 69.70000000000001705 ) ) ;
#65 = AXIS2_PLACEMENT_3D ( 'NONE', #171, #221, #130 ) ;
#66 = CARTESIAN_POINT ( 'NONE',  ( 0.0000000000000000000, 0.0000000000000000000, 0.0000000000000000000 ) ) ;
#67 = CARTESIAN_POINT ( 'NONE',  ( 3.869445280877825814E-14, 1.499999999999991562, 11.08253175473057794 ) ) ;
#68 = SHAPE_DEFINITION_REPRESENTATION ( #178, #41 ) ;
#69 = AXIS2_PLACEMENT_3D ( 'NONE', #16, #133, #152 ) ;
#70 = EDGE_LOOP ( 'NONE', ( #29 ) ) ;
#71 = PERSON_AND_ORGANIZATION ( #89, #237 ) ;
#72 = EDGE_LOOP ( 'NONE', ( #234 ) ) ;
#73 = ADVANCED_FACE ( 'NONE', ( #207, #100 ), #222, .T. ) ;
#74 = DATE_AND_TIME ( #53, #57 ) ;
#75 = CARTESIAN_POINT ( 'NONE',  ( 2.444036937190193601E-13, -7.347880794884121511E-15, 70.00000000000000000 ) ) ;
#76 = APPROVAL_ROLE ( '' ) ;
#77 = FACE_OUTER_BOUND ( 'NONE', #160, .T. ) ;
#78 = FACE_OUTER_BOUND ( 'NONE', #127, .T. ) ;
#79 = CARTESIAN_POINT ( 'NONE',  ( 2.444036937190193601E-13, 1.199999999999990186, 70.00000000000000000 ) ) ;
#80 = FACE_BOUND ( 'NONE', #72, .T. ) ;
#81 = PLANE ( 'NONE',  #24 ) ;
#82 = CC_DESIGN_PERSON_AND_ORGANIZATION_ASSIGNMENT ( #23, #139, ( #202 ) ) ;
#83 = EDGE_CURVE ( 'NONE', #153, #153, #93, .T. ) ;
#84 = PERSON_AND_ORGANIZATION_ROLE ( 'design_supplier' ) ;
#85 = PERSON_AND_ORGANIZATION ( #89, #237 ) ;
#86 = CLOSED_SHELL ( 'NONE', ( #140, #63, #73, #201 ) ) ;
#87 = CALENDAR_DATE ( 2021, 26, 11 ) ;
#88 = ORIENTED_EDGE ( 'NONE', *, *, #212, .F. ) ;
#89 = PERSON ( 'UNSPECIFIED', 'UNSPECIFIED', 'UNSPECIFIED', ('UNSPECIFIED'), ('UNSPECIFIED'), ('UNSPECIFIED') ) ;
#90 = DIRECTION ( 'NONE',  ( -3.491481338843133355E-15, 1.049697256412017316E-16, -1.000000000000000000 ) ) ;
#91 = PRODUCT_RELATED_PRODUCT_CATEGORY ( 'detail', '', ( #229 ) ) ;
#92 = ORIENTED_EDGE ( 'NONE', *, *, #168, .T. ) ;
#93 = CIRCLE ( 'NONE', #230, 1.628999999999998449 ) ;
#94 = ORIENTED_EDGE ( 'NONE', *, *, #168, .F. ) ;
#95 = FACE_OUTER_BOUND ( 'NONE', #162, .T. ) ;
#96 = FACE_OUTER_BOUND ( 'NONE', #182, .T. ) ;
#97 = FACE_OUTER_BOUND ( 'NONE', #52, .T. ) ;
#98 = APPROVAL ( #159, 'UNSPECIFIED' ) ;
#99 = DIRECTION ( 'NONE',  ( -3.783287797445783921E-30, 1.000000000000000000, -1.064900844675761063E-15 ) ) ;
#100 = FACE_BOUND ( 'NONE', #70, .T. ) ;
#101 = CC_DESIGN_PERSON_AND_ORGANIZATION_ASSIGNMENT ( #105, #39, ( #229 ) ) ;
#102 =( NAMED_UNIT ( * ) PLANE_ANGLE_UNIT ( ) SI_UNIT ( $, .RADIAN. ) );
#103 =( GEOMETRIC_REPRESENTATION_CONTEXT ( 3 ) GLOBAL_UNCERTAINTY_ASSIGNED_CONTEXT ( ( #55 ) ) GLOBAL_UNIT_ASSIGNED_CONTEXT ( ( #135, #102, #104 ) ) REPRESENTATION_CONTEXT ( 'NONE', 'WORKASPACE' ) );
#104 =( NAMED_UNIT ( * ) SI_UNIT ( $, .STERADIAN. ) SOLID_ANGLE_UNIT ( ) );
#105 = PERSON_AND_ORGANIZATION ( #89, #237 ) ;
#106 = VERTEX_POINT ( 'NONE', #67 ) ;
#107 = AXIS2_PLACEMENT_3D ( 'NONE', #188, #19, #99 ) ;
#108 = CALENDAR_DATE ( 2021, 26, 11 ) ;
#109 = EDGE_LOOP ( 'NONE', ( #48 ) ) ;
#110 = CC_DESIGN_DATE_AND_TIME_ASSIGNMENT ( #217, #10, ( #36 ) ) ;
#111 = PERSON_AND_ORGANIZATION_ROLE ( 'classification_officer' ) ;
#112 = EDGE_LOOP ( 'NONE', ( #88 ) ) ;
#113 = DIRECTION ( 'NONE',  ( 1.901123627790060557E-30, -1.000000000000000000, 5.445034480464897456E-16 ) ) ;
#114 = DIRECTION ( 'NONE',  ( 3.491481338843133355E-15, 5.445034480464897456E-16, 1.000000000000000000 ) ) ;
#115 = CARTESIAN_POINT ( 'NONE',  ( 2.433562493173664138E-13, -7.316389877191761450E-15, 69.70000000000001705 ) ) ;
#116 = CC_DESIGN_PERSON_AND_ORGANIZATION_ASSIGNMENT ( #121, #111, ( #36 ) ) ;
#117 = CARTESIAN_POINT ( 'NONE',  ( 0.0000000000000000000, 0.0000000000000000000, 0.0000000000000000000 ) ) ;
#118 = DIRECTION ( 'NONE',  ( 0.0000000000000000000, 1.000000000000000000, 0.0000000000000000000 ) ) ;
#119 = PERSON_AND_ORGANIZATION ( #89, #237 ) ;
#120 = PERSON_AND_ORGANIZATION ( #89, #237 ) ;
#121 = PERSON_AND_ORGANIZATION ( #89, #237 ) ;
#122 = COORDINATED_UNIVERSAL_TIME_OFFSET ( 1, 0, .AHEAD. ) ;
#123 = CARTESIAN_POINT ( 'NONE',  ( 3.791433523241861911E-14, 1.628999999999998671, 10.85909720055417793 ) ) ;
#124 = ORIENTED_EDGE ( 'NONE', *, *, #167, .T. ) ;
#125 = AXIS2_PLACEMENT_3D ( 'NONE', #115, #223, #208 ) ;
#126 = APPROVAL_STATUS ( 'not_yet_approved' ) ;
#127 = EDGE_LOOP ( 'NONE', ( #94 ) ) ;
#128 = APPLICATION_CONTEXT ( 'configuration controlled 3d designs of mechanical parts and assemblies' ) ;
#129 = FACE_OUTER_BOUND ( 'NONE', #164, .T. ) ;
#130 = DIRECTION ( 'NONE',  ( -1.901123627790060557E-30, 1.000000000000000000, -5.445034480464897456E-16 ) ) ;
#131 = APPROVAL ( #126, 'UNSPECIFIED' ) ;
#132 = CYLINDRICAL_SURFACE ( 'NONE', #220, 1.499999999999995337 ) ;
#133 = DIRECTION ( 'NONE',  ( -3.491481338843133355E-15, 1.049697256412017316E-16, -1.000000000000000000 ) ) ;
#134 = DIRECTION ( 'NONE',  ( 3.491481338843133355E-15, 5.445034480464897456E-16, 1.000000000000000000 ) ) ;
#135 =( LENGTH_UNIT ( ) NAMED_UNIT ( * ) SI_UNIT ( .MILLI., .METRE. ) );
#136 = COORDINATED_UNIVERSAL_TIME_OFFSET ( 1, 0, .AHEAD. ) ;
#137 = CIRCLE ( 'NONE', #194, 1.499999999999992673 ) ;
#138 = ADVANCED_FACE ( 'NONE', ( #80, #78 ), #142, .T. ) ;
#139 = PERSON_AND_ORGANIZATION_ROLE ( 'creator' ) ;
#140 = ADVANCED_FACE ( 'NONE', ( #58 ), #81, .T. ) ;
#141 = CC_DESIGN_APPROVAL ( #131, ( #36 ) ) ;
#142 = CONICAL_SURFACE ( 'NONE', #69, 1.628999999999999782, 0.5235987755982927094 ) ;
#143 = EDGE_LOOP ( 'NONE', ( #92 ) ) ;
#144 = ORIENTED_EDGE ( 'NONE', *, *, #150, .T. ) ;
#145 = COORDINATED_UNIVERSAL_TIME_OFFSET ( 1, 0, .AHEAD. ) ;
#146 = DIRECTION ( 'NONE',  ( -3.491481338843133355E-15, 1.049697256412017316E-16, -1.000000000000000000 ) ) ;
#147 = CIRCLE ( 'NONE', #155, 1.628999999999999782 ) ;
#148 = ORIENTED_EDGE ( 'NONE', *, *, #150, .F. ) ;
#149 = PLANE ( 'NONE',  #65 ) ;
#150 = EDGE_CURVE ( 'NONE', #196, #196, #8, .T. ) ;
#151 = CONICAL_SURFACE ( 'NONE', #125, 1.499999999999997558, 0.7853981633974573828 ) ;
#152 = DIRECTION ( 'NONE',  ( 0.0000000000000000000, 1.000000000000000000, 0.0000000000000000000 ) ) ;
#153 = VERTEX_POINT ( 'NONE', #224 ) ;
#154 = DIRECTION ( 'NONE',  ( -1.901123627790060557E-30, 1.000000000000000000, -5.445034480464897456E-16 ) ) ;
#155 = AXIS2_PLACEMENT_3D ( 'NONE', #225, #211, #34 ) ;
#156 = CARTESIAN_POINT ( 'NONE',  ( 2.444036937190193601E-13, -7.347880794884121511E-15, 70.00000000000000000 ) ) ;
#157 = SECURITY_CLASSIFICATION_LEVEL ( 'unclassified' ) ;
#158 = LOCAL_TIME ( 14, 1, 36.00000000000000000, #185 ) ;
#159 = APPROVAL_STATUS ( 'not_yet_approved' ) ;
#160 = EDGE_LOOP ( 'NONE', ( #11 ) ) ;
#161 = CC_DESIGN_APPROVAL ( #98, ( #202 ) ) ;
#162 = EDGE_LOOP ( 'NONE', ( #7 ) ) ;
#163 = ADVANCED_FACE ( 'NONE', ( #169, #77 ), #151, .T. ) ;
#164 = EDGE_LOOP ( 'NONE', ( #144 ) ) ;
#165 = AXIS2_PLACEMENT_3D ( 'NONE', #156, #37, #166 ) ;
#166 = DIRECTION ( 'NONE',  ( -3.664998382197393967E-31, -1.000000000000000000, -1.049697256412017316E-16 ) ) ;
#167 = EDGE_CURVE ( 'NONE', #174, #174, #17, .T. ) ;
#168 = EDGE_CURVE ( 'NONE', #3, #3, #147, .T. ) ;
#169 = FACE_BOUND ( 'NONE', #27, .T. ) ;
#170 = CC_DESIGN_APPROVAL ( #184, ( #12 ) ) ;
#171 = CARTESIAN_POINT ( 'NONE',  ( -1.505900206370742808E-30, 1.484662432702592572, -4.313069612079632356E-16 ) ) ;
#172 = CARTESIAN_POINT ( 'NONE',  ( 2.633253247464853389E-30, 4.106610729585939017E-31, 7.541937051673760278E-16 ) ) ;
#173 = CARTESIAN_POINT ( 'NONE',  ( 3.869445280877825814E-14, -1.163330317703974832E-15, 11.08253175473057794 ) ) ;
#174 = VERTEX_POINT ( 'NONE', #180 ) ;
#175 = DIRECTION ( 'NONE',  ( 0.0000000000000000000, 0.0000000000000000000, 1.000000000000000000 ) ) ;
#176 = ADVANCED_FACE ( 'NONE', ( #95 ), #190, .T. ) ;
#177 = APPLICATION_PROTOCOL_DEFINITION ( 'international standard', 'config_control_design', 1994, #197 ) ;
#178 = PRODUCT_DEFINITION_SHAPE ( 'NONE', 'NONE',  #202 ) ;
#179 = APPROVAL_PERSON_ORGANIZATION ( #71, #131, #76 ) ;
#180 = CARTESIAN_POINT ( 'NONE',  ( -1.892735826383161356E-31, 1.484662432702592572, -5.421010862427522170E-17 ) ) ;
#181 = ORIENTED_EDGE ( 'NONE', *, *, #83, .T. ) ;
#182 = EDGE_LOOP ( 'NONE', ( #26 ) ) ;
#183 = AXIS2_PLACEMENT_3D ( 'NONE', #172, #35, #154 ) ;
#184 = APPROVAL ( #228, 'UNSPECIFIED' ) ;
#185 = COORDINATED_UNIVERSAL_TIME_OFFSET ( 1, 0, .AHEAD. ) ;
#186 = DESIGN_CONTEXT ( 'detailed design', #128, 'design' ) ;
#187 = AXIS2_PLACEMENT_3D ( 'NONE', #13, #114, #33 ) ;
#188 = CARTESIAN_POINT ( 'NONE',  ( 3.791433523241862542E-14, 5.912815868373734508E-15, 10.85909720055417971 ) ) ;
#189 = CARTESIAN_POINT ( 'NONE',  ( 3.791433523241862542E-14, 5.912815868373735297E-15, 10.85909720055417971 ) ) ;
#190 = PLANE ( 'NONE',  #165 ) ;
#191 = CC_DESIGN_SECURITY_CLASSIFICATION ( #36, ( #12 ) ) ;
#192 = DIRECTION ( 'NONE',  ( -3.491481338843133355E-15, 1.049697256412017316E-16, -1.000000000000000000 ) ) ;
#193 = CYLINDRICAL_SURFACE ( 'NONE', #4, 1.628999999999995785 ) ;
#194 = AXIS2_PLACEMENT_3D ( 'NONE', #173, #227, #14 ) ;
#195 = PERSON_AND_ORGANIZATION_ROLE ( 'creator' ) ;
#196 = VERTEX_POINT ( 'NONE', #22 ) ;
#197 = APPLICATION_CONTEXT ( 'configuration controlled 3d designs of mechanical parts and assemblies' ) ;
#198 = APPROVAL_ROLE ( '' ) ;
#199 = MECHANICAL_CONTEXT ( 'NONE', #197, 'mechanical' ) ;
#200 = EDGE_LOOP ( 'NONE', ( #148 ) ) ;
#201 = ADVANCED_FACE ( 'NONE', ( #97 ), #149, .T. ) ;
#202 = PRODUCT_DEFINITION ( 'UNKNOWN', '', #12, #186 ) ;
#203 = DIRECTION ( 'NONE',  ( 0.0000000000000000000, 1.000000000000000000, 0.0000000000000000000 ) ) ;
#204 = ORIENTED_EDGE ( 'NONE', *, *, #56, .T. ) ;
#205 = DIRECTION ( 'NONE',  ( -1.891643898722885304E-30, 1.000000000000000000, -5.324504223378786582E-16 ) ) ;
#206 = CARTESIAN_POINT ( 'NONE',  ( 2.433562493173664138E-13, -7.316389877191761450E-15, 69.70000000000001705 ) ) ;
#207 = FACE_OUTER_BOUND ( 'NONE', #54, .T. ) ;
#208 = DIRECTION ( 'NONE',  ( 0.0000000000000000000, 1.000000000000000000, 0.0000000000000000000 ) ) ;
#209 = EDGE_CURVE ( 'NONE', #6, #6, #50, .T. ) ;
#210 = AXIS2_PLACEMENT_3D ( 'NONE', #66, #175, #216 ) ;
#211 = DIRECTION ( 'NONE',  ( -3.491481338843133355E-15, 1.049697256412017316E-16, -1.000000000000000000 ) ) ;
#212 = EDGE_CURVE ( 'NONE', #106, #106, #137, .T. ) ;
#213 = DATE_AND_TIME ( #108, #28 ) ;
#214 = AXIS2_PLACEMENT_3D ( 'NONE', #206, #61, #118 ) ;
#215 = APPLICATION_PROTOCOL_DEFINITION ( 'international standard', 'config_control_design', 1994, #128 ) ;
#216 = DIRECTION ( 'NONE',  ( 1.000000000000000000, 0.0000000000000000000, 0.0000000000000000000 ) ) ;
#217 = DATE_AND_TIME ( #236, #158 ) ;
#218 = LOCAL_TIME ( 14, 1, 36.00000000000000000, #122 ) ;
#219 = PLANE ( 'NONE',  #47 ) ;
#220 = AXIS2_PLACEMENT_3D ( 'NONE', #60, #192, #243 ) ;
#221 = DIRECTION ( 'NONE',  ( -3.491481338843133355E-15, -5.445034480464897456E-16, -1.000000000000000000 ) ) ;
#222 = CONICAL_SURFACE ( 'NONE', #187, 1.484662432702592572, 0.5235987755982971503 ) ;
#223 = DIRECTION ( 'NONE',  ( -3.491481338843133355E-15, 1.049697256412017316E-16, -1.000000000000000000 ) ) ;
#224 = CARTESIAN_POINT ( 'NONE',  ( 8.728703347107831416E-16, 1.628999999999998671, 0.2499999999999999445 ) ) ;
#225 = CARTESIAN_POINT ( 'NONE',  ( 3.791433523241861911E-14, -1.139876453853313704E-15, 10.85909720055417793 ) ) ;
#226 = LOCAL_TIME ( 14, 1, 36.00000000000000000, #20 ) ;
#227 = DIRECTION ( 'NONE',  ( -3.491481338843133355E-15, 1.049697256412017316E-16, -1.000000000000000000 ) ) ;
#228 = APPROVAL_STATUS ( 'not_yet_approved' ) ;
#229 = PRODUCT ( '321229', '321229', '', ( #199 ) ) ;
#230 = AXIS2_PLACEMENT_3D ( 'NONE', #242, #30, #205 ) ;
#231 = APPROVAL_DATE_TIME ( #43, #98 ) ;
#232 = AXIS2_PLACEMENT_3D ( 'NONE', #75, #146, #203 ) ;
#233 = APPROVAL_DATE_TIME ( #74, #131 ) ;
#234 = ORIENTED_EDGE ( 'NONE', *, *, #212, .T. ) ;
#235 = FACE_OUTER_BOUND ( 'NONE', #143, .T. ) ;
#236 = CALENDAR_DATE ( 2021, 26, 11 ) ;
#237 = ORGANIZATION ( 'UNSPECIFIED', 'UNSPECIFIED', '' ) ;
#238 = DIRECTION ( 'NONE',  ( -3.491481338843133355E-15, -5.445034480464897456E-16, -1.000000000000000000 ) ) ;
#239 = FACE_OUTER_BOUND ( 'NONE', #109, .T. ) ;
#240 = APPROVAL_PERSON_ORGANIZATION ( #85, #184, #198 ) ;
#241 = VERTEX_POINT ( 'NONE', #79 ) ;
#242 = CARTESIAN_POINT ( 'NONE',  ( 8.728703347107862970E-16, 1.361258620116228801E-16, 0.2500000000000008327 ) ) ;
#243 = DIRECTION ( 'NONE',  ( 3.664998382197393967E-31, 1.000000000000000000, 1.049697256412017316E-16 ) ) ;
ENDSEC;
END-ISO-10303-21;
