ISO-10303-21;
HEADER;
FILE_DESCRIPTION (( 'STEP AP203' ),
    '1' );
FILE_NAME ('321228.step',
    '2021-11-26T13:01:35',
    ( '' ),
    ( '' ),
    'SwSTEP 2.0',
    'SolidWorks 2019',
    '' );
FILE_SCHEMA (( 'CONFIG_CONTROL_DESIGN' ));
ENDSEC;

DATA;
#1 = CARTESIAN_POINT ( 'NONE',  ( 3.794457234778140046E-14, 5.910694717896291519E-15, 10.86775745459202369 ) ) ;
#2 = PLANE ( 'NONE',  #148 ) ;
#3 = FACE_OUTER_BOUND ( 'NONE', #240, .T. ) ;
#4 = ADVANCED_BREP_SHAPE_REPRESENTATION ( '321228', ( #198, #31, #21 ), #14 ) ;
#5 = DIRECTION ( 'NONE',  ( -3.491481338843133355E-15, 1.049697256412017316E-16, -1.000000000000000000 ) ) ;
#6 = DIRECTION ( 'NONE',  ( -3.491481338843133355E-15, 1.049697256412017316E-16, -1.000000000000000000 ) ) ;
#7 = PERSON_AND_ORGANIZATION ( #180, #71 ) ;
#8 = APPROVAL_PERSON_ORGANIZATION ( #167, #235, #90 ) ;
#9 = COORDINATED_UNIVERSAL_TIME_OFFSET ( 1, 0, .AHEAD. ) ;
#10 = EDGE_CURVE ( 'NONE', #82, #82, #12, .T. ) ;
#11 = PERSON_AND_ORGANIZATION_ROLE ( 'design_owner' ) ;
#12 = CIRCLE ( 'NONE', #87, 1.499999999999997558 ) ;
#13 = VERTEX_POINT ( 'NONE', #140 ) ;
#14 =( GEOMETRIC_REPRESENTATION_CONTEXT ( 3 ) GLOBAL_UNCERTAINTY_ASSIGNED_CONTEXT ( ( #207 ) ) GLOBAL_UNIT_ASSIGNED_CONTEXT ( ( #178, #84, #102 ) ) REPRESENTATION_CONTEXT ( 'NONE', 'WORKASPACE' ) );
#15 = ORIENTED_EDGE ( 'NONE', *, *, #230, .F. ) ;
#16 = ADVANCED_FACE ( 'NONE', ( #96, #3 ), #200, .T. ) ;
#17 = COORDINATED_UNIVERSAL_TIME_OFFSET ( 1, 0, .AHEAD. ) ;
#18 = APPLICATION_CONTEXT ( 'configuration controlled 3d designs of mechanical parts and assemblies' ) ;
#19 = EDGE_LOOP ( 'NONE', ( #88 ) ) ;
#20 = DIRECTION ( 'NONE',  ( 3.664998382197393967E-31, 1.000000000000000000, 1.049697256412017316E-16 ) ) ;
#21 = AXIS2_PLACEMENT_3D ( 'NONE', #52, #146, #195 ) ;
#22 = CARTESIAN_POINT ( 'NONE',  ( 0.0000000000000000000, 0.0000000000000000000, 0.0000000000000000000 ) ) ;
#23 = CARTESIAN_POINT ( 'NONE',  ( 2.620497667660382721E-30, 4.081996650413008081E-31, 7.505403619108724615E-16 ) ) ;
#24 = DIRECTION ( 'NONE',  ( -3.491481338843133355E-15, -5.438743680646651597E-16, -1.000000000000000000 ) ) ;
#25 = AXIS2_PLACEMENT_3D ( 'NONE', #23, #64, #215 ) ;
#26 = FACE_OUTER_BOUND ( 'NONE', #109, .T. ) ;
#27 = CALENDAR_DATE ( 2021, 26, 11 ) ;
#28 = CC_DESIGN_APPROVAL ( #77, ( #211 ) ) ;
#29 = PERSON_AND_ORGANIZATION ( #180, #71 ) ;
#30 = CARTESIAN_POINT ( 'NONE',  ( 2.444036937190193601E-13, -7.347880794884121511E-15, 70.00000000000000000 ) ) ;
#31 = MANIFOLD_SOLID_BREP ( 'Corps-Déplacer/Copier1[2]', #243 ) ;
#32 = ADVANCED_FACE ( 'NONE', ( #72, #154 ), #115, .T. ) ;
#33 = VERTEX_POINT ( 'NONE', #53 ) ;
#34 = LOCAL_TIME ( 14, 1, 35.00000000000000000, #9 ) ;
#35 = EDGE_LOOP ( 'NONE', ( #203 ) ) ;
#36 = PRODUCT_RELATED_PRODUCT_CATEGORY ( 'detail', '', ( #116 ) ) ;
#37 = EDGE_LOOP ( 'NONE', ( #224 ) ) ;
#38 = APPROVAL_DATE_TIME ( #182, #125 ) ;
#39 = EDGE_LOOP ( 'NONE', ( #129 ) ) ;
#40 = PLANE ( 'NONE',  #83 ) ;
#41 = CIRCLE ( 'NONE', #151, 1.623999999999998556 ) ;
#42 = DIRECTION ( 'NONE',  ( 0.0000000000000000000, 1.000000000000000000, 0.0000000000000000000 ) ) ;
#43 = DIRECTION ( 'NONE',  ( -3.491481338843133355E-15, -5.438743680646651597E-16, -1.000000000000000000 ) ) ;
#44 = CC_DESIGN_DATE_AND_TIME_ASSIGNMENT ( #142, #217, ( #211 ) ) ;
#45 = FACE_OUTER_BOUND ( 'NONE', #106, .T. ) ;
#46 = AXIS2_PLACEMENT_3D ( 'NONE', #234, #160, #143 ) ;
#47 = DIRECTION ( 'NONE',  ( 0.0000000000000000000, 1.000000000000000000, 0.0000000000000000000 ) ) ;
#48 = CC_DESIGN_PERSON_AND_ORGANIZATION_ASSIGNMENT ( #175, #11, ( #116 ) ) ;
#49 = CARTESIAN_POINT ( 'NONE',  ( 8.728703347107831416E-16, 1.623999999999998778, 0.2499999999999999445 ) ) ;
#50 = PERSON_AND_ORGANIZATION ( #180, #71 ) ;
#51 = AXIS2_PLACEMENT_3D ( 'NONE', #171, #5, #76 ) ;
#52 = CARTESIAN_POINT ( 'NONE',  ( 0.0000000000000000000, 0.0000000000000000000, 0.0000000000000000000 ) ) ;
#53 = CARTESIAN_POINT ( 'NONE',  ( 3.794457234778139415E-14, 1.623999999999998778, 10.86775745459202192 ) ) ;
#54 = CIRCLE ( 'NONE', #127, 1.199999999999997513 ) ;
#55 = ADVANCED_FACE ( 'NONE', ( #231, #213 ), #91, .T. ) ;
#56 = SHAPE_DEFINITION_REPRESENTATION ( #209, #4 ) ;
#57 = EDGE_LOOP ( 'NONE', ( #70 ) ) ;
#58 = AXIS2_PLACEMENT_3D ( 'NONE', #225, #139, #20 ) ;
#59 = ORIENTED_EDGE ( 'NONE', *, *, #10, .F. ) ;
#60 = CARTESIAN_POINT ( 'NONE',  ( 2.444036937190193601E-13, -7.347880794884121511E-15, 70.00000000000000000 ) ) ;
#61 = DIRECTION ( 'NONE',  ( -1.898927206772880229E-30, 1.000000000000000000, -5.438743680646651597E-16 ) ) ;
#62 = FACE_OUTER_BOUND ( 'NONE', #184, .T. ) ;
#63 = DIRECTION ( 'NONE',  ( -3.794935851009348515E-30, 1.000000000000000000, -1.068179480281289881E-15 ) ) ;
#64 = DIRECTION ( 'NONE',  ( 3.491481338843133355E-15, 5.438743680646651597E-16, 1.000000000000000000 ) ) ;
#65 = DIRECTION ( 'NONE',  ( 3.491481338843133355E-15, -1.049697256412017316E-16, 1.000000000000000000 ) ) ;
#66 = CARTESIAN_POINT ( 'NONE',  ( 2.433562493173664138E-13, 1.499999999999990230, 69.70000000000001705 ) ) ;
#67 = LOCAL_TIME ( 14, 1, 35.00000000000000000, #108 ) ;
#68 = VERTEX_POINT ( 'NONE', #164 ) ;
#69 = ORIENTED_EDGE ( 'NONE', *, *, #230, .T. ) ;
#70 = ORIENTED_EDGE ( 'NONE', *, *, #10, .T. ) ;
#71 = ORGANIZATION ( 'UNSPECIFIED', 'UNSPECIFIED', '' ) ;
#72 = FACE_OUTER_BOUND ( 'NONE', #57, .T. ) ;
#73 = EDGE_CURVE ( 'NONE', #33, #33, #232, .T. ) ;
#74 = DIRECTION ( 'NONE',  ( -3.491481338843133355E-15, 1.049697256412017316E-16, -1.000000000000000000 ) ) ;
#75 = LOCAL_TIME ( 14, 1, 35.00000000000000000, #17 ) ;
#76 = DIRECTION ( 'NONE',  ( 0.0000000000000000000, 1.000000000000000000, 0.0000000000000000000 ) ) ;
#77 = APPROVAL ( #79, 'UNSPECIFIED' ) ;
#78 = DIRECTION ( 'NONE',  ( -3.491481338843133355E-15, 1.049697256412017316E-16, -1.000000000000000000 ) ) ;
#79 = APPROVAL_STATUS ( 'not_yet_approved' ) ;
#80 = APPROVAL_PERSON_ORGANIZATION ( #50, #125, #130 ) ;
#81 = CALENDAR_DATE ( 2021, 26, 11 ) ;
#82 = VERTEX_POINT ( 'NONE', #66 ) ;
#83 = AXIS2_PLACEMENT_3D ( 'NONE', #212, #229, #214 ) ;
#84 =( NAMED_UNIT ( * ) PLANE_ANGLE_UNIT ( ) SI_UNIT ( $, .RADIAN. ) );
#85 = DATE_AND_TIME ( #128, #204 ) ;
#86 = PERSON_AND_ORGANIZATION ( #180, #71 ) ;
#87 = AXIS2_PLACEMENT_3D ( 'NONE', #153, #78, #190 ) ;
#88 = ORIENTED_EDGE ( 'NONE', *, *, #101, .T. ) ;
#89 = CALENDAR_DATE ( 2021, 26, 11 ) ;
#90 = APPROVAL_ROLE ( '' ) ;
#91 = CONICAL_SURFACE ( 'NONE', #25, 1.479662432702592678, 0.5235987755982971503 ) ;
#92 = CARTESIAN_POINT ( 'NONE',  ( 8.728703347107862970E-16, 1.359685920161667337E-16, 0.2500000000000008327 ) ) ;
#93 = DIRECTION ( 'NONE',  ( -3.491481338843133355E-15, 1.049697256412017316E-16, -1.000000000000000000 ) ) ;
#94 = EDGE_CURVE ( 'NONE', #124, #124, #41, .T. ) ;
#95 = DIRECTION ( 'NONE',  ( -3.491481338843133355E-15, -5.438743680646651597E-16, -1.000000000000000000 ) ) ;
#96 = FACE_BOUND ( 'NONE', #19, .T. ) ;
#97 = CLOSED_SHELL ( 'NONE', ( #239, #16, #32, #141, #112 ) ) ;
#98 = DIRECTION ( 'NONE',  ( -3.491481338843133355E-15, -5.438743680646651597E-16, -1.000000000000000000 ) ) ;
#99 = DATE_AND_TIME ( #27, #210 ) ;
#100 = CC_DESIGN_SECURITY_CLASSIFICATION ( #221, ( #188 ) ) ;
#101 = EDGE_CURVE ( 'NONE', #162, #162, #54, .T. ) ;
#102 =( NAMED_UNIT ( * ) SI_UNIT ( $, .STERADIAN. ) SOLID_ANGLE_UNIT ( ) );
#103 = AXIS2_PLACEMENT_3D ( 'NONE', #172, #93, #155 ) ;
#104 = APPROVAL_STATUS ( 'not_yet_approved' ) ;
#105 = ORIENTED_EDGE ( 'NONE', *, *, #101, .F. ) ;
#106 = EDGE_LOOP ( 'NONE', ( #149 ) ) ;
#107 = AXIS2_PLACEMENT_3D ( 'NONE', #208, #114, #61 ) ;
#108 = COORDINATED_UNIVERSAL_TIME_OFFSET ( 1, 0, .AHEAD. ) ;
#109 = EDGE_LOOP ( 'NONE', ( #165 ) ) ;
#110 = PERSON_AND_ORGANIZATION_ROLE ( 'classification_officer' ) ;
#111 = EDGE_LOOP ( 'NONE', ( #156 ) ) ;
#112 = ADVANCED_FACE ( 'NONE', ( #26 ), #2, .T. ) ;
#113 = CC_DESIGN_APPROVAL ( #125, ( #188 ) ) ;
#114 = DIRECTION ( 'NONE',  ( -3.491481338843133355E-15, -5.438743680646651597E-16, -1.000000000000000000 ) ) ;
#115 = CYLINDRICAL_SURFACE ( 'NONE', #58, 1.499999999999995337 ) ;
#116 = PRODUCT ( '321228', '321228', '', ( #179 ) ) ;
#117 = DIRECTION ( 'NONE',  ( -1.898927206772880229E-30, 1.000000000000000000, -5.438743680646651597E-16 ) ) ;
#118 = DIRECTION ( 'NONE',  ( 3.664998382197393967E-31, 1.000000000000000000, 1.049697256412017316E-16 ) ) ;
#119 = CARTESIAN_POINT ( 'NONE',  ( -1.499522416468507474E-30, 1.479662432702592678, -4.294802895797114525E-16 ) ) ;
#120 = VERTEX_POINT ( 'NONE', #158 ) ;
#121 = CC_DESIGN_DATE_AND_TIME_ASSIGNMENT ( #150, #241, ( #221 ) ) ;
#122 = FACE_OUTER_BOUND ( 'NONE', #187, .T. ) ;
#123 = APPLICATION_CONTEXT ( 'configuration controlled 3d designs of mechanical parts and assemblies' ) ;
#124 = VERTEX_POINT ( 'NONE', #49 ) ;
#125 = APPROVAL ( #104, 'UNSPECIFIED' ) ;
#126 = PERSON_AND_ORGANIZATION_ROLE ( 'design_supplier' ) ;
#127 = AXIS2_PLACEMENT_3D ( 'NONE', #60, #135, #47 ) ;
#128 = CALENDAR_DATE ( 2021, 26, 11 ) ;
#129 = ORIENTED_EDGE ( 'NONE', *, *, #94, .F. ) ;
#130 = APPROVAL_ROLE ( '' ) ;
#131 = ADVANCED_FACE ( 'NONE', ( #134 ), #227, .T. ) ;
#132 = ORIENTED_EDGE ( 'NONE', *, *, #73, .T. ) ;
#133 = AXIS2_PLACEMENT_3D ( 'NONE', #119, #98, #170 ) ;
#134 = FACE_OUTER_BOUND ( 'NONE', #37, .T. ) ;
#135 = DIRECTION ( 'NONE',  ( -3.491481338843133355E-15, 1.049697256412017316E-16, -1.000000000000000000 ) ) ;
#136 = EDGE_LOOP ( 'NONE', ( #69 ) ) ;
#137 = FACE_OUTER_BOUND ( 'NONE', #35, .T. ) ;
#138 = APPROVAL_PERSON_ORGANIZATION ( #7, #77, #233 ) ;
#139 = DIRECTION ( 'NONE',  ( -3.491481338843133355E-15, 1.049697256412017316E-16, -1.000000000000000000 ) ) ;
#140 = CARTESIAN_POINT ( 'NONE',  ( 3.869445280877825814E-14, 1.499999999999991562, 11.08253175473057794 ) ) ;
#141 = ADVANCED_FACE ( 'NONE', ( #192, #45 ), #163, .T. ) ;
#142 = DATE_AND_TIME ( #81, #34 ) ;
#143 = DIRECTION ( 'NONE',  ( 0.0000000000000000000, 1.000000000000000000, 0.0000000000000000000 ) ) ;
#144 = DIRECTION ( 'NONE',  ( -3.664998382197393967E-31, -1.000000000000000000, -1.049697256412017316E-16 ) ) ;
#145 = CC_DESIGN_PERSON_AND_ORGANIZATION_ASSIGNMENT ( #86, #110, ( #221 ) ) ;
#146 = DIRECTION ( 'NONE',  ( 0.0000000000000000000, 0.0000000000000000000, 1.000000000000000000 ) ) ;
#147 = PERSON_AND_ORGANIZATION ( #180, #71 ) ;
#148 = AXIS2_PLACEMENT_3D ( 'NONE', #194, #74, #118 ) ;
#149 = ORIENTED_EDGE ( 'NONE', *, *, #226, .F. ) ;
#150 = DATE_AND_TIME ( #89, #67 ) ;
#151 = AXIS2_PLACEMENT_3D ( 'NONE', #92, #95, #173 ) ;
#152 = COORDINATED_UNIVERSAL_TIME_OFFSET ( 1, 0, .AHEAD. ) ;
#153 = CARTESIAN_POINT ( 'NONE',  ( 2.433562493173664138E-13, -7.316389877191761450E-15, 69.70000000000001705 ) ) ;
#154 = FACE_OUTER_BOUND ( 'NONE', #222, .T. ) ;
#155 = DIRECTION ( 'NONE',  ( 0.0000000000000000000, 1.000000000000000000, 0.0000000000000000000 ) ) ;
#156 = ORIENTED_EDGE ( 'NONE', *, *, #94, .T. ) ;
#157 = CARTESIAN_POINT ( 'NONE',  ( 2.433562493173664138E-13, -7.316389877191761450E-15, 69.70000000000001705 ) ) ;
#158 = CARTESIAN_POINT ( 'NONE',  ( 3.794457234778139415E-14, 1.623999999999998778, 10.86775745459202192 ) ) ;
#159 = EDGE_CURVE ( 'NONE', #68, #68, #193, .T. ) ;
#160 = DIRECTION ( 'NONE',  ( -3.491481338843133355E-15, 1.049697256412017316E-16, -1.000000000000000000 ) ) ;
#161 = APPLICATION_PROTOCOL_DEFINITION ( 'international standard', 'config_control_design', 1994, #123 ) ;
#162 = VERTEX_POINT ( 'NONE', #238 ) ;
#163 = CONICAL_SURFACE ( 'NONE', #103, 1.623999999999999888, 0.5235987755982940417 ) ;
#164 = CARTESIAN_POINT ( 'NONE',  ( -1.892735826383164860E-31, 1.479662432702592678, -5.421010862427522170E-17 ) ) ;
#165 = ORIENTED_EDGE ( 'NONE', *, *, #226, .T. ) ;
#166 = CC_DESIGN_PERSON_AND_ORGANIZATION_ASSIGNMENT ( #29, #236, ( #211 ) ) ;
#167 = PERSON_AND_ORGANIZATION ( #180, #71 ) ;
#168 = EDGE_LOOP ( 'NONE', ( #206 ) ) ;
#169 = AXIS2_PLACEMENT_3D ( 'NONE', #1, #24, #63 ) ;
#170 = DIRECTION ( 'NONE',  ( -1.898927206772880229E-30, 1.000000000000000000, -5.438743680646651597E-16 ) ) ;
#171 = CARTESIAN_POINT ( 'NONE',  ( 3.794457234778139415E-14, -1.140785518343649428E-15, 10.86775745459202192 ) ) ;
#172 = CARTESIAN_POINT ( 'NONE',  ( 3.794457234778139415E-14, -1.140785518343649428E-15, 10.86775745459202192 ) ) ;
#173 = DIRECTION ( 'NONE',  ( -1.897467925504667601E-30, 1.000000000000000000, -5.340897401406430670E-16 ) ) ;
#174 = FACE_OUTER_BOUND ( 'NONE', #39, .T. ) ;
#175 = PERSON_AND_ORGANIZATION ( #180, #71 ) ;
#176 = CC_DESIGN_APPROVAL ( #235, ( #221 ) ) ;
#177 = APPROVAL_DATE_TIME ( #99, #77 ) ;
#178 =( LENGTH_UNIT ( ) NAMED_UNIT ( * ) SI_UNIT ( .MILLI., .METRE. ) );
#179 = MECHANICAL_CONTEXT ( 'NONE', #18, 'mechanical' ) ;
#180 = PERSON ( 'UNSPECIFIED', 'UNSPECIFIED', 'UNSPECIFIED', ('UNSPECIFIED'), ('UNSPECIFIED'), ('UNSPECIFIED') ) ;
#181 = APPROVAL_STATUS ( 'not_yet_approved' ) ;
#182 = DATE_AND_TIME ( #202, #75 ) ;
#183 = CIRCLE ( 'NONE', #51, 1.623999999999999888 ) ;
#184 = EDGE_LOOP ( 'NONE', ( #132 ) ) ;
#185 = CC_DESIGN_PERSON_AND_ORGANIZATION_ASSIGNMENT ( #147, #205, ( #188 ) ) ;
#186 = APPROVAL_DATE_TIME ( #85, #235 ) ;
#187 = EDGE_LOOP ( 'NONE', ( #105 ) ) ;
#188 = PRODUCT_DEFINITION_FORMATION_WITH_SPECIFIED_SOURCE ( 'ANY', '', #116, .NOT_KNOWN. ) ;
#189 = CYLINDRICAL_SURFACE ( 'NONE', #228, 1.623999999999995669 ) ;
#190 = DIRECTION ( 'NONE',  ( 0.0000000000000000000, 1.000000000000000000, 0.0000000000000000000 ) ) ;
#191 = CC_DESIGN_PERSON_AND_ORGANIZATION_ASSIGNMENT ( #223, #126, ( #188 ) ) ;
#192 = FACE_BOUND ( 'NONE', #136, .T. ) ;
#193 = CIRCLE ( 'NONE', #107, 1.479662432702592678 ) ;
#194 = CARTESIAN_POINT ( 'NONE',  ( 3.794457234778139415E-14, 1.623999999999998778, 10.86775745459202192 ) ) ;
#195 = DIRECTION ( 'NONE',  ( 1.000000000000000000, 0.0000000000000000000, 0.0000000000000000000 ) ) ;
#196 = AXIS2_PLACEMENT_3D ( 'NONE', #30, #65, #144 ) ;
#197 = PLANE ( 'NONE',  #196 ) ;
#198 = MANIFOLD_SOLID_BREP ( 'Corps-Déplacer/Copier1[1]', #97 ) ;
#199 = APPLICATION_PROTOCOL_DEFINITION ( 'international standard', 'config_control_design', 1994, #18 ) ;
#200 = CONICAL_SURFACE ( 'NONE', #237, 1.499999999999997558, 0.7853981633974573828 ) ;
#201 = ADVANCED_FACE ( 'NONE', ( #137 ), #40, .T. ) ;
#202 = CALENDAR_DATE ( 2021, 26, 11 ) ;
#203 = ORIENTED_EDGE ( 'NONE', *, *, #73, .F. ) ;
#204 = LOCAL_TIME ( 14, 1, 35.00000000000000000, #152 ) ;
#205 = PERSON_AND_ORGANIZATION_ROLE ( 'creator' ) ;
#206 = ORIENTED_EDGE ( 'NONE', *, *, #159, .F. ) ;
#207 = UNCERTAINTY_MEASURE_WITH_UNIT (LENGTH_MEASURE( 1.000000000000000082E-05 ), #178, 'distance_accuracy_value', 'NONE');
#208 = CARTESIAN_POINT ( 'NONE',  ( 2.620497667660382721E-30, 4.081996650413008081E-31, 7.505403619108724615E-16 ) ) ;
#209 = PRODUCT_DEFINITION_SHAPE ( 'NONE', 'NONE',  #211 ) ;
#210 = LOCAL_TIME ( 14, 1, 35.00000000000000000, #216 ) ;
#211 = PRODUCT_DEFINITION ( 'UNKNOWN', '', #188, #219 ) ;
#212 = CARTESIAN_POINT ( 'NONE',  ( 3.794457234778139415E-14, 5.910694717896290730E-15, 10.86775745459202192 ) ) ;
#213 = FACE_BOUND ( 'NONE', #168, .T. ) ;
#214 = DIRECTION ( 'NONE',  ( 1.898927206772880229E-30, -1.000000000000000000, 5.438743680646651597E-16 ) ) ;
#215 = DIRECTION ( 'NONE',  ( 1.898927206772879879E-30, -1.000000000000000000, 5.438743680646651597E-16 ) ) ;
#216 = COORDINATED_UNIVERSAL_TIME_OFFSET ( 1, 0, .AHEAD. ) ;
#217 = DATE_TIME_ROLE ( 'creation_date' ) ;
#218 = ADVANCED_FACE ( 'NONE', ( #62, #174 ), #189, .T. ) ;
#219 = DESIGN_CONTEXT ( 'detailed design', #123, 'design' ) ;
#220 = SECURITY_CLASSIFICATION_LEVEL ( 'unclassified' ) ;
#221 = SECURITY_CLASSIFICATION ( '', '', #220 ) ;
#222 = EDGE_LOOP ( 'NONE', ( #15 ) ) ;
#223 = PERSON_AND_ORGANIZATION ( #180, #71 ) ;
#224 = ORIENTED_EDGE ( 'NONE', *, *, #159, .T. ) ;
#225 = CARTESIAN_POINT ( 'NONE',  ( 0.0000000000000000000, 0.0000000000000000000, 0.0000000000000000000 ) ) ;
#226 = EDGE_CURVE ( 'NONE', #120, #120, #183, .T. ) ;
#227 = PLANE ( 'NONE',  #133 ) ;
#228 = AXIS2_PLACEMENT_3D ( 'NONE', #22, #43, #117 ) ;
#229 = DIRECTION ( 'NONE',  ( 3.491481338843133355E-15, 5.438743680646651597E-16, 1.000000000000000000 ) ) ;
#230 = EDGE_CURVE ( 'NONE', #13, #13, #242, .T. ) ;
#231 = FACE_OUTER_BOUND ( 'NONE', #111, .T. ) ;
#232 = CIRCLE ( 'NONE', #169, 1.623999999999992783 ) ;
#233 = APPROVAL_ROLE ( '' ) ;
#234 = CARTESIAN_POINT ( 'NONE',  ( 3.869445280877825814E-14, -1.163330317703974832E-15, 11.08253175473057794 ) ) ;
#235 = APPROVAL ( #181, 'UNSPECIFIED' ) ;
#236 = PERSON_AND_ORGANIZATION_ROLE ( 'creator' ) ;
#237 = AXIS2_PLACEMENT_3D ( 'NONE', #157, #6, #42 ) ;
#238 = CARTESIAN_POINT ( 'NONE',  ( 2.444036937190193601E-13, 1.199999999999990186, 70.00000000000000000 ) ) ;
#239 = ADVANCED_FACE ( 'NONE', ( #122 ), #197, .T. ) ;
#240 = EDGE_LOOP ( 'NONE', ( #59 ) ) ;
#241 = DATE_TIME_ROLE ( 'classification_date' ) ;
#242 = CIRCLE ( 'NONE', #46, 1.499999999999992673 ) ;
#243 = CLOSED_SHELL ( 'NONE', ( #201, #218, #55, #131 ) ) ;
ENDSEC;
END-ISO-10303-21;
