ISO-10303-21;
HEADER;
FILE_DESCRIPTION (( 'STEP AP203' ),
    '1' );
FILE_NAME ('321227.step',
    '2021-11-26T13:01:35',
    ( '' ),
    ( '' ),
    'SwSTEP 2.0',
    'SolidWorks 2019',
    '' );
FILE_SCHEMA (( 'CONFIG_CONTROL_DESIGN' ));
ENDSEC;

DATA;
#1 = DATE_AND_TIME ( #154, #243 ) ;
#2 = APPROVAL_DATE_TIME ( #205, #230 ) ;
#3 = PERSON_AND_ORGANIZATION_ROLE ( 'creator' ) ;
#4 = CIRCLE ( 'NONE', #201, 1.618999999999992889 ) ;
#5 = PERSON_AND_ORGANIZATION_ROLE ( 'classification_officer' ) ;
#6 = APPROVAL_ROLE ( '' ) ;
#7 = EDGE_CURVE ( 'NONE', #199, #199, #217, .T. ) ;
#8 = CIRCLE ( 'NONE', #204, 1.199999999999997513 ) ;
#9 = FACE_OUTER_BOUND ( 'NONE', #184, .T. ) ;
#10 = EDGE_LOOP ( 'NONE', ( #41 ) ) ;
#11 = DIRECTION ( 'NONE',  ( 3.664998382197393967E-31, 1.000000000000000000, 1.049697256412017316E-16 ) ) ;
#12 = AXIS2_PLACEMENT_3D ( 'NONE', #218, #96, #60 ) ;
#13 = ORIENTED_EDGE ( 'NONE', *, *, #132, .F. ) ;
#14 = FACE_OUTER_BOUND ( 'NONE', #69, .T. ) ;
#15 = PERSON_AND_ORGANIZATION_ROLE ( 'design_owner' ) ;
#16 = AXIS2_PLACEMENT_3D ( 'NONE', #117, #188, #63 ) ;
#17 = DIRECTION ( 'NONE',  ( 0.0000000000000000000, 1.000000000000000000, 0.0000000000000000000 ) ) ;
#18 = EDGE_LOOP ( 'NONE', ( #68 ) ) ;
#19 = EDGE_LOOP ( 'NONE', ( #89 ) ) ;
#20 = ADVANCED_FACE ( 'NONE', ( #181, #53 ), #131, .T. ) ;
#21 = VERTEX_POINT ( 'NONE', #130 ) ;
#22 = CC_DESIGN_APPROVAL ( #55, ( #95 ) ) ;
#23 = COORDINATED_UNIVERSAL_TIME_OFFSET ( 1, 0, .AHEAD. ) ;
#24 = APPROVAL_STATUS ( 'not_yet_approved' ) ;
#25 = PRODUCT_DEFINITION ( 'UNKNOWN', '', #43, #74 ) ;
#26 = SECURITY_CLASSIFICATION_LEVEL ( 'unclassified' ) ;
#27 = AXIS2_PLACEMENT_3D ( 'NONE', #183, #49, #146 ) ;
#28 = AXIS2_PLACEMENT_3D ( 'NONE', #143, #232, #50 ) ;
#29 = DIRECTION ( 'NONE',  ( 1.896734283518378736E-30, -1.000000000000000000, 5.432462898818878794E-16 ) ) ;
#30 = CARTESIAN_POINT ( 'NONE',  ( 0.0000000000000000000, 0.0000000000000000000, 0.0000000000000000000 ) ) ;
#31 = CARTESIAN_POINT ( 'NONE',  ( 0.0000000000000000000, 0.0000000000000000000, 0.0000000000000000000 ) ) ;
#32 = CC_DESIGN_APPROVAL ( #220, ( #43 ) ) ;
#33 = ORIENTED_EDGE ( 'NONE', *, *, #155, .T. ) ;
#34 = ORIENTED_EDGE ( 'NONE', *, *, #7, .T. ) ;
#35 = EDGE_CURVE ( 'NONE', #150, #150, #158, .T. ) ;
#36 = VERTEX_POINT ( 'NONE', #224 ) ;
#37 = CARTESIAN_POINT ( 'NONE',  ( 3.797480946314417550E-14, 1.618999999999998662, 10.87641770862986590 ) ) ;
#38 = EDGE_LOOP ( 'NONE', ( #160 ) ) ;
#39 = AXIS2_PLACEMENT_3D ( 'NONE', #151, #40, #93 ) ;
#40 = DIRECTION ( 'NONE',  ( -3.491481338843133355E-15, 1.049697256412017316E-16, -1.000000000000000000 ) ) ;
#41 = ORIENTED_EDGE ( 'NONE', *, *, #35, .F. ) ;
#42 = CARTESIAN_POINT ( 'NONE',  ( 8.728703347107831416E-16, 1.618999999999998662, 0.2499999999999999445 ) ) ;
#43 = PRODUCT_DEFINITION_FORMATION_WITH_SPECIFIED_SOURCE ( 'ANY', '', #221, .NOT_KNOWN. ) ;
#44 = APPROVAL_DATE_TIME ( #100, #55 ) ;
#45 = AXIS2_PLACEMENT_3D ( 'NONE', #58, #168, #169 ) ;
#46 = CC_DESIGN_DATE_AND_TIME_ASSIGNMENT ( #1, #138, ( #25 ) ) ;
#47 = CALENDAR_DATE ( 2021, 26, 11 ) ;
#48 = DIRECTION ( 'NONE',  ( -3.491481338843133355E-15, 1.049697256412017316E-16, -1.000000000000000000 ) ) ;
#49 = DIRECTION ( 'NONE',  ( -3.491481338843133355E-15, -5.432462898818878794E-16, -1.000000000000000000 ) ) ;
#50 = DIRECTION ( 'NONE',  ( 3.664998382197393967E-31, 1.000000000000000000, 1.049697256412017316E-16 ) ) ;
#51 = CYLINDRICAL_SURFACE ( 'NONE', #119, 1.499999999999995337 ) ;
#52 = UNCERTAINTY_MEASURE_WITH_UNIT (LENGTH_MEASURE( 1.000000000000000082E-05 ), #129, 'distance_accuracy_value', 'NONE');
#53 = FACE_OUTER_BOUND ( 'NONE', #19, .T. ) ;
#54 = CIRCLE ( 'NONE', #82, 1.499999999999997558 ) ;
#55 = APPROVAL ( #64, 'UNSPECIFIED' ) ;
#56 = FACE_BOUND ( 'NONE', #141, .T. ) ;
#57 = PRODUCT_DEFINITION_SHAPE ( 'NONE', 'NONE',  #25 ) ;
#58 = CARTESIAN_POINT ( 'NONE',  ( 2.444036937190193601E-13, -7.347880794884121511E-15, 70.00000000000000000 ) ) ;
#59 = EDGE_LOOP ( 'NONE', ( #164 ) ) ;
#60 = DIRECTION ( 'NONE',  ( -1.896734283518378736E-30, 1.000000000000000000, -5.432462898818878794E-16 ) ) ;
#61 = MECHANICAL_CONTEXT ( 'NONE', #66, 'mechanical' ) ;
#62 = CC_DESIGN_PERSON_AND_ORGANIZATION_ASSIGNMENT ( #85, #5, ( #95 ) ) ;
#63 = DIRECTION ( 'NONE',  ( 1.000000000000000000, 0.0000000000000000000, 0.0000000000000000000 ) ) ;
#64 = APPROVAL_STATUS ( 'not_yet_approved' ) ;
#65 = SHAPE_DEFINITION_REPRESENTATION ( #57, #90 ) ;
#66 = APPLICATION_CONTEXT ( 'configuration controlled 3d designs of mechanical parts and assemblies' ) ;
#67 = DATE_AND_TIME ( #47, #135 ) ;
#68 = ORIENTED_EDGE ( 'NONE', *, *, #132, .T. ) ;
#69 = EDGE_LOOP ( 'NONE', ( #198 ) ) ;
#70 = CC_DESIGN_PERSON_AND_ORGANIZATION_ASSIGNMENT ( #226, #3, ( #25 ) ) ;
#71 = ORIENTED_EDGE ( 'NONE', *, *, #182, .T. ) ;
#72 = DIRECTION ( 'NONE',  ( -1.896734283518378736E-30, 1.000000000000000000, -5.432462898818878794E-16 ) ) ;
#73 = CARTESIAN_POINT ( 'NONE',  ( 2.433562493173664138E-13, -7.316389877191761450E-15, 69.70000000000001705 ) ) ;
#74 = DESIGN_CONTEXT ( 'detailed design', #162, 'design' ) ;
#75 = EDGE_CURVE ( 'NONE', #128, #128, #177, .T. ) ;
#76 = AXIS2_PLACEMENT_3D ( 'NONE', #179, #48, #195 ) ;
#77 = PLANE ( 'NONE',  #12 ) ;
#78 = CARTESIAN_POINT ( 'NONE',  ( -1.892735826383161356E-31, 1.474662432702592563, -5.421010862427522170E-17 ) ) ;
#79 = ORIENTED_EDGE ( 'NONE', *, *, #182, .F. ) ;
#80 = CARTESIAN_POINT ( 'NONE',  ( 2.444036937190193601E-13, -7.347880794884121511E-15, 70.00000000000000000 ) ) ;
#81 = DATE_TIME_ROLE ( 'classification_date' ) ;
#82 = AXIS2_PLACEMENT_3D ( 'NONE', #73, #215, #140 ) ;
#83 = PERSON_AND_ORGANIZATION_ROLE ( 'design_supplier' ) ;
#84 = APPROVAL_STATUS ( 'not_yet_approved' ) ;
#85 = PERSON_AND_ORGANIZATION ( #200, #101 ) ;
#86 = CLOSED_SHELL ( 'NONE', ( #144, #99, #103, #194 ) ) ;
#87 = PLANE ( 'NONE',  #28 ) ;
#88 = DIRECTION ( 'NONE',  ( -3.491481338843133355E-15, -5.432462898818878794E-16, -1.000000000000000000 ) ) ;
#89 = ORIENTED_EDGE ( 'NONE', *, *, #7, .F. ) ;
#90 = ADVANCED_BREP_SHAPE_REPRESENTATION ( '321227', ( #192, #118, #16 ), #207 ) ;
#91 = CC_DESIGN_PERSON_AND_ORGANIZATION_ASSIGNMENT ( #185, #15, ( #221 ) ) ;
#92 = FACE_OUTER_BOUND ( 'NONE', #233, .T. ) ;
#93 = DIRECTION ( 'NONE',  ( 0.0000000000000000000, 1.000000000000000000, 0.0000000000000000000 ) ) ;
#94 = APPLICATION_PROTOCOL_DEFINITION ( 'international standard', 'config_control_design', 1994, #162 ) ;
#95 = SECURITY_CLASSIFICATION ( '', '', #26 ) ;
#96 = DIRECTION ( 'NONE',  ( -3.491481338843133355E-15, -5.432462898818878794E-16, -1.000000000000000000 ) ) ;
#97 = EDGE_LOOP ( 'NONE', ( #13 ) ) ;
#98 = DIRECTION ( 'NONE',  ( -3.491481338843133355E-15, 1.049697256412017316E-16, -1.000000000000000000 ) ) ;
#99 = ADVANCED_FACE ( 'NONE', ( #210, #14 ), #159, .T. ) ;
#100 = DATE_AND_TIME ( #134, #127 ) ;
#101 = ORGANIZATION ( 'UNSPECIFIED', 'UNSPECIFIED', '' ) ;
#102 = PERSON_AND_ORGANIZATION ( #200, #101 ) ;
#103 = ADVANCED_FACE ( 'NONE', ( #109, #123 ), #191, .T. ) ;
#104 = APPROVAL_ROLE ( '' ) ;
#105 = APPROVAL_PERSON_ORGANIZATION ( #171, #220, #104 ) ;
#106 = PRODUCT_RELATED_PRODUCT_CATEGORY ( 'detail', '', ( #221 ) ) ;
#107 = EDGE_LOOP ( 'NONE', ( #241 ) ) ;
#108 = CARTESIAN_POINT ( 'NONE',  ( 3.797480946314417550E-14, 5.908573567418840642E-15, 10.87641770862986768 ) ) ;
#109 = FACE_OUTER_BOUND ( 'NONE', #107, .T. ) ;
#110 = DIRECTION ( 'NONE',  ( 3.491481338843133355E-15, 5.432462898818878794E-16, 1.000000000000000000 ) ) ;
#111 = CIRCLE ( 'NONE', #173, 1.499999999999992673 ) ;
#112 = CARTESIAN_POINT ( 'NONE',  ( 3.797480946314416919E-14, -1.141694582833984955E-15, 10.87641770862986590 ) ) ;
#113 = CC_DESIGN_DATE_AND_TIME_ASSIGNMENT ( #209, #81, ( #95 ) ) ;
#114 = EDGE_LOOP ( 'NONE', ( #216 ) ) ;
#115 = AXIS2_PLACEMENT_3D ( 'NONE', #212, #229, #72 ) ;
#116 = EDGE_LOOP ( 'NONE', ( #33 ) ) ;
#117 = CARTESIAN_POINT ( 'NONE',  ( 0.0000000000000000000, 0.0000000000000000000, 0.0000000000000000000 ) ) ;
#118 = MANIFOLD_SOLID_BREP ( 'Corps-Déplacer/Copier1[2]', #86 ) ;
#119 = AXIS2_PLACEMENT_3D ( 'NONE', #30, #180, #11 ) ;
#120 = CC_DESIGN_SECURITY_CLASSIFICATION ( #95, ( #43 ) ) ;
#121 = DIRECTION ( 'NONE',  ( 3.491481338843133355E-15, 5.432462898818878794E-16, 1.000000000000000000 ) ) ;
#122 = AXIS2_PLACEMENT_3D ( 'NONE', #178, #110, #29 ) ;
#123 = FACE_BOUND ( 'NONE', #10, .T. ) ;
#124 = FACE_OUTER_BOUND ( 'NONE', #18, .T. ) ;
#125 = DIRECTION ( 'NONE',  ( 1.896734283518378736E-30, -1.000000000000000000, 5.432462898818878794E-16 ) ) ;
#126 = DIRECTION ( 'NONE',  ( -1.896734283518378736E-30, 1.000000000000000000, -5.432462898818878794E-16 ) ) ;
#127 = LOCAL_TIME ( 14, 1, 35.00000000000000000, #228 ) ;
#128 = VERTEX_POINT ( 'NONE', #42 ) ;
#129 =( LENGTH_UNIT ( ) NAMED_UNIT ( * ) SI_UNIT ( .MILLI., .METRE. ) );
#130 = CARTESIAN_POINT ( 'NONE',  ( 3.869445280877825814E-14, 1.499999999999991562, 11.08253175473057794 ) ) ;
#131 = CONICAL_SURFACE ( 'NONE', #208, 1.618999999999999773, 0.5235987755982918213 ) ;
#132 = EDGE_CURVE ( 'NONE', #236, #236, #54, .T. ) ;
#133 = FACE_OUTER_BOUND ( 'NONE', #163, .T. ) ;
#134 = CALENDAR_DATE ( 2021, 26, 11 ) ;
#135 = LOCAL_TIME ( 14, 1, 35.00000000000000000, #176 ) ;
#136 = PERSON_AND_ORGANIZATION_ROLE ( 'creator' ) ;
#137 = AXIS2_PLACEMENT_3D ( 'NONE', #31, #88, #126 ) ;
#138 = DATE_TIME_ROLE ( 'creation_date' ) ;
#139 = CC_DESIGN_PERSON_AND_ORGANIZATION_ASSIGNMENT ( #174, #83, ( #43 ) ) ;
#140 = DIRECTION ( 'NONE',  ( 0.0000000000000000000, 1.000000000000000000, 0.0000000000000000000 ) ) ;
#141 = EDGE_LOOP ( 'NONE', ( #71 ) ) ;
#142 = CONICAL_SURFACE ( 'NONE', #39, 1.499999999999997558, 0.7853981633974573828 ) ;
#143 = CARTESIAN_POINT ( 'NONE',  ( 3.797480946314417550E-14, 1.618999999999998662, 10.87641770862986768 ) ) ;
#144 = ADVANCED_FACE ( 'NONE', ( #92 ), #145, .T. ) ;
#145 = PLANE ( 'NONE',  #152 ) ;
#146 = DIRECTION ( 'NONE',  ( -1.903327925274601771E-30, 1.000000000000000000, -5.357391834394097370E-16 ) ) ;
#147 = CARTESIAN_POINT ( 'NONE',  ( 3.797480946314416919E-14, 1.618999999999998662, 10.87641770862986590 ) ) ;
#148 = LOCAL_TIME ( 14, 1, 35.00000000000000000, #23 ) ;
#149 = DIRECTION ( 'NONE',  ( -3.491481338843133355E-15, 1.049697256412017316E-16, -1.000000000000000000 ) ) ;
#150 = VERTEX_POINT ( 'NONE', #78 ) ;
#151 = CARTESIAN_POINT ( 'NONE',  ( 2.433562493173664138E-13, -7.316389877191761450E-15, 69.70000000000001705 ) ) ;
#152 = AXIS2_PLACEMENT_3D ( 'NONE', #108, #121, #125 ) ;
#153 = DIRECTION ( 'NONE',  ( 0.0000000000000000000, 1.000000000000000000, 0.0000000000000000000 ) ) ;
#154 = CALENDAR_DATE ( 2021, 26, 11 ) ;
#155 = EDGE_CURVE ( 'NONE', #219, #219, #4, .T. ) ;
#156 = CALENDAR_DATE ( 2021, 26, 11 ) ;
#157 = COORDINATED_UNIVERSAL_TIME_OFFSET ( 1, 0, .AHEAD. ) ;
#158 = CIRCLE ( 'NONE', #115, 1.474662432702592563 ) ;
#159 = CYLINDRICAL_SURFACE ( 'NONE', #137, 1.618999999999995554 ) ;
#160 = ORIENTED_EDGE ( 'NONE', *, *, #35, .T. ) ;
#161 = DIRECTION ( 'NONE',  ( -3.491481338843133355E-15, -5.432462898818878794E-16, -1.000000000000000000 ) ) ;
#162 = APPLICATION_CONTEXT ( 'configuration controlled 3d designs of mechanical parts and assemblies' ) ;
#163 = EDGE_LOOP ( 'NONE', ( #79 ) ) ;
#164 = ORIENTED_EDGE ( 'NONE', *, *, #214, .T. ) ;
#165 = FACE_OUTER_BOUND ( 'NONE', #97, .T. ) ;
#166 = ADVANCED_FACE ( 'NONE', ( #9 ), #87, .T. ) ;
#167 = PERSON_AND_ORGANIZATION ( #200, #101 ) ;
#168 = DIRECTION ( 'NONE',  ( 3.491481338843133355E-15, -1.049697256412017316E-16, 1.000000000000000000 ) ) ;
#169 = DIRECTION ( 'NONE',  ( -3.664998382197393967E-31, -1.000000000000000000, -1.049697256412017316E-16 ) ) ;
#170 = LOCAL_TIME ( 14, 1, 35.00000000000000000, #157 ) ;
#171 = PERSON_AND_ORGANIZATION ( #200, #101 ) ;
#172 = CALENDAR_DATE ( 2021, 26, 11 ) ;
#173 = AXIS2_PLACEMENT_3D ( 'NONE', #240, #149, #17 ) ;
#174 = PERSON_AND_ORGANIZATION ( #200, #101 ) ;
#175 = ADVANCED_FACE ( 'NONE', ( #124, #196 ), #51, .T. ) ;
#176 = COORDINATED_UNIVERSAL_TIME_OFFSET ( 1, 0, .AHEAD. ) ;
#177 = CIRCLE ( 'NONE', #27, 1.618999999999998440 ) ;
#178 = CARTESIAN_POINT ( 'NONE',  ( 2.607769210085305262E-30, 4.057478218447130030E-31, 7.468947867696073152E-16 ) ) ;
#179 = CARTESIAN_POINT ( 'NONE',  ( 3.797480946314416919E-14, -1.141694582833984955E-15, 10.87641770862986590 ) ) ;
#180 = DIRECTION ( 'NONE',  ( -3.491481338843133355E-15, 1.049697256412017316E-16, -1.000000000000000000 ) ) ;
#181 = FACE_BOUND ( 'NONE', #59, .T. ) ;
#182 = EDGE_CURVE ( 'NONE', #36, #36, #8, .T. ) ;
#183 = CARTESIAN_POINT ( 'NONE',  ( 8.728703347107862970E-16, 1.358115724704724136E-16, 0.2500000000000008327 ) ) ;
#184 = EDGE_LOOP ( 'NONE', ( #34 ) ) ;
#185 = PERSON_AND_ORGANIZATION ( #200, #101 ) ;
#186 = APPROVAL_PERSON_ORGANIZATION ( #225, #55, #6 ) ;
#187 =( NAMED_UNIT ( * ) PLANE_ANGLE_UNIT ( ) SI_UNIT ( $, .RADIAN. ) );
#188 = DIRECTION ( 'NONE',  ( 0.0000000000000000000, 0.0000000000000000000, 1.000000000000000000 ) ) ;
#189 = PLANE ( 'NONE',  #45 ) ;
#190 = COORDINATED_UNIVERSAL_TIME_OFFSET ( 1, 0, .AHEAD. ) ;
#191 = CONICAL_SURFACE ( 'NONE', #122, 1.474662432702592563, 0.5235987755982971503 ) ;
#192 = MANIFOLD_SOLID_BREP ( 'Corps-Déplacer/Copier1[1]', #197 ) ;
#193 = CARTESIAN_POINT ( 'NONE',  ( 3.797480946314417550E-14, 5.908573567418839853E-15, 10.87641770862986768 ) ) ;
#194 = ADVANCED_FACE ( 'NONE', ( #238 ), #77, .T. ) ;
#195 = DIRECTION ( 'NONE',  ( 0.0000000000000000000, 1.000000000000000000, 0.0000000000000000000 ) ) ;
#196 = FACE_OUTER_BOUND ( 'NONE', #114, .T. ) ;
#197 = CLOSED_SHELL ( 'NONE', ( #239, #203, #175, #20, #166 ) ) ;
#198 = ORIENTED_EDGE ( 'NONE', *, *, #75, .F. ) ;
#199 = VERTEX_POINT ( 'NONE', #147 ) ;
#200 = PERSON ( 'UNSPECIFIED', 'UNSPECIFIED', 'UNSPECIFIED', ('UNSPECIFIED'), ('UNSPECIFIED'), ('UNSPECIFIED') ) ;
#201 = AXIS2_PLACEMENT_3D ( 'NONE', #193, #161, #213 ) ;
#202 = APPLICATION_PROTOCOL_DEFINITION ( 'international standard', 'config_control_design', 1994, #66 ) ;
#203 = ADVANCED_FACE ( 'NONE', ( #56, #165 ), #142, .T. ) ;
#204 = AXIS2_PLACEMENT_3D ( 'NONE', #80, #98, #153 ) ;
#205 = DATE_AND_TIME ( #172, #148 ) ;
#206 = APPROVAL_ROLE ( '' ) ;
#207 =( GEOMETRIC_REPRESENTATION_CONTEXT ( 3 ) GLOBAL_UNCERTAINTY_ASSIGNED_CONTEXT ( ( #52 ) ) GLOBAL_UNIT_ASSIGNED_CONTEXT ( ( #129, #187, #222 ) ) REPRESENTATION_CONTEXT ( 'NONE', 'WORKASPACE' ) );
#208 = AXIS2_PLACEMENT_3D ( 'NONE', #112, #235, #211 ) ;
#209 = DATE_AND_TIME ( #156, #170 ) ;
#210 = FACE_OUTER_BOUND ( 'NONE', #116, .T. ) ;
#211 = DIRECTION ( 'NONE',  ( 0.0000000000000000000, 1.000000000000000000, 0.0000000000000000000 ) ) ;
#212 = CARTESIAN_POINT ( 'NONE',  ( 2.607769210085305262E-30, 4.057478218447130030E-31, 7.468947867696073152E-16 ) ) ;
#213 = DIRECTION ( 'NONE',  ( 0.0000000000000000000, 1.000000000000000000, -1.071478366878823221E-15 ) ) ;
#214 = EDGE_CURVE ( 'NONE', #21, #21, #111, .T. ) ;
#215 = DIRECTION ( 'NONE',  ( -3.491481338843133355E-15, 1.049697256412017316E-16, -1.000000000000000000 ) ) ;
#216 = ORIENTED_EDGE ( 'NONE', *, *, #214, .F. ) ;
#217 = CIRCLE ( 'NONE', #76, 1.618999999999999773 ) ;
#218 = CARTESIAN_POINT ( 'NONE',  ( -1.493158187680968745E-30, 1.474662432702592563, -4.276575020090788793E-16 ) ) ;
#219 = VERTEX_POINT ( 'NONE', #37 ) ;
#220 = APPROVAL ( #24, 'UNSPECIFIED' ) ;
#221 = PRODUCT ( '321227', '321227', '', ( #61 ) ) ;
#222 =( NAMED_UNIT ( * ) SI_UNIT ( $, .STERADIAN. ) SOLID_ANGLE_UNIT ( ) );
#223 = APPROVAL_PERSON_ORGANIZATION ( #167, #230, #206 ) ;
#224 = CARTESIAN_POINT ( 'NONE',  ( 2.444036937190193601E-13, 1.199999999999990186, 70.00000000000000000 ) ) ;
#225 = PERSON_AND_ORGANIZATION ( #200, #101 ) ;
#226 = PERSON_AND_ORGANIZATION ( #200, #101 ) ;
#227 = APPROVAL_DATE_TIME ( #67, #220 ) ;
#228 = COORDINATED_UNIVERSAL_TIME_OFFSET ( 1, 0, .AHEAD. ) ;
#229 = DIRECTION ( 'NONE',  ( -3.491481338843133355E-15, -5.432462898818878794E-16, -1.000000000000000000 ) ) ;
#230 = APPROVAL ( #84, 'UNSPECIFIED' ) ;
#231 = ORIENTED_EDGE ( 'NONE', *, *, #155, .F. ) ;
#232 = DIRECTION ( 'NONE',  ( -3.491481338843133355E-15, 1.049697256412017316E-16, -1.000000000000000000 ) ) ;
#233 = EDGE_LOOP ( 'NONE', ( #231 ) ) ;
#234 = CC_DESIGN_PERSON_AND_ORGANIZATION_ASSIGNMENT ( #102, #136, ( #43 ) ) ;
#235 = DIRECTION ( 'NONE',  ( -3.491481338843133355E-15, 1.049697256412017316E-16, -1.000000000000000000 ) ) ;
#236 = VERTEX_POINT ( 'NONE', #242 ) ;
#237 = CC_DESIGN_APPROVAL ( #230, ( #25 ) ) ;
#238 = FACE_OUTER_BOUND ( 'NONE', #38, .T. ) ;
#239 = ADVANCED_FACE ( 'NONE', ( #133 ), #189, .T. ) ;
#240 = CARTESIAN_POINT ( 'NONE',  ( 3.869445280877825814E-14, -1.163330317703974832E-15, 11.08253175473057794 ) ) ;
#241 = ORIENTED_EDGE ( 'NONE', *, *, #75, .T. ) ;
#242 = CARTESIAN_POINT ( 'NONE',  ( 2.433562493173664138E-13, 1.499999999999990230, 69.70000000000001705 ) ) ;
#243 = LOCAL_TIME ( 14, 1, 35.00000000000000000, #190 ) ;
ENDSEC;
END-ISO-10303-21;
