ISO-10303-21;
HEADER;
FILE_DESCRIPTION (( 'STEP AP203' ),
    '1' );
FILE_NAME ('321226.step',
    '2021-11-26T13:01:34',
    ( '' ),
    ( '' ),
    'SwSTEP 2.0',
    'SolidWorks 2019',
    '' );
FILE_SCHEMA (( 'CONFIG_CONTROL_DESIGN' ));
ENDSEC;

DATA;
#1 = UNCERTAINTY_MEASURE_WITH_UNIT (LENGTH_MEASURE( 1.000000000000000082E-05 ), #240, 'distance_accuracy_value', 'NONE');
#2 = PRODUCT_DEFINITION_SHAPE ( 'NONE', 'NONE',  #98 ) ;
#3 = AXIS2_PLACEMENT_3D ( 'NONE', #95, #205, #222 ) ;
#4 = PERSON ( 'UNSPECIFIED', 'UNSPECIFIED', 'UNSPECIFIED', ('UNSPECIFIED'), ('UNSPECIFIED'), ('UNSPECIFIED') ) ;
#5 = ORIENTED_EDGE ( 'NONE', *, *, #186, .F. ) ;
#6 = CARTESIAN_POINT ( 'NONE',  ( -1.486807487640138053E-30, 1.469662432702592669, -4.258385892255052288E-16 ) ) ;
#7 = CARTESIAN_POINT ( 'NONE',  ( 2.595067810003643879E-30, 4.033055059374952333E-31, 7.432569612024600143E-16 ) ) ;
#8 = PERSON_AND_ORGANIZATION ( #4, #166 ) ;
#9 = AXIS2_PLACEMENT_3D ( 'NONE', #104, #142, #216 ) ;
#10 = CARTESIAN_POINT ( 'NONE',  ( 8.728703347107862970E-16, 1.356548027767606256E-16, 0.2500000000000008327 ) ) ;
#11 = AXIS2_PLACEMENT_3D ( 'NONE', #51, #87, #215 ) ;
#12 = PERSON_AND_ORGANIZATION_ROLE ( 'design_supplier' ) ;
#13 = PLANE ( 'NONE',  #116 ) ;
#14 = FACE_OUTER_BOUND ( 'NONE', #46, .T. ) ;
#15 = APPROVAL ( #125, 'UNSPECIFIED' ) ;
#16 = PERSON_AND_ORGANIZATION_ROLE ( 'creator' ) ;
#17 = APPLICATION_PROTOCOL_DEFINITION ( 'international standard', 'config_control_design', 1994, #36 ) ;
#18 = ADVANCED_FACE ( 'NONE', ( #141 ), #73, .T. ) ;
#19 = DIRECTION ( 'NONE',  ( -3.491481338843133355E-15, 1.049697256412017316E-16, -1.000000000000000000 ) ) ;
#20 = VERTEX_POINT ( 'NONE', #37 ) ;
#21 = EDGE_CURVE ( 'NONE', #33, #33, #86, .T. ) ;
#22 = EDGE_LOOP ( 'NONE', ( #44 ) ) ;
#23 = CC_DESIGN_APPROVAL ( #15, ( #98 ) ) ;
#24 = MANIFOLD_SOLID_BREP ( 'Corps-Déplacer/Copier1[2]', #210 ) ;
#25 = CARTESIAN_POINT ( 'NONE',  ( 3.869445280877825814E-14, -1.163330317703974832E-15, 11.08253175473057794 ) ) ;
#26 = FACE_BOUND ( 'NONE', #156, .T. ) ;
#27 = APPROVAL_ROLE ( '' ) ;
#28 = DIRECTION ( 'NONE',  ( 0.0000000000000000000, 1.000000000000000000, -1.074797692674606328E-15 ) ) ;
#29 = PERSON_AND_ORGANIZATION ( #4, #166 ) ;
#30 = EDGE_LOOP ( 'NONE', ( #191 ) ) ;
#31 = DATE_TIME_ROLE ( 'classification_date' ) ;
#32 = PLANE ( 'NONE',  #138 ) ;
#33 = VERTEX_POINT ( 'NONE', #119 ) ;
#34 = AXIS2_PLACEMENT_3D ( 'NONE', #120, #19, #172 ) ;
#35 = ADVANCED_FACE ( 'NONE', ( #196, #194 ), #176, .T. ) ;
#36 = APPLICATION_CONTEXT ( 'configuration controlled 3d designs of mechanical parts and assemblies' ) ;
#37 = CARTESIAN_POINT ( 'NONE',  ( 3.800504657850695055E-14, 1.613999999999998991, 10.88507796266771166 ) ) ;
#38 = PLANE ( 'NONE',  #3 ) ;
#39 = LOCAL_TIME ( 14, 1, 34.00000000000000000, #214 ) ;
#40 = CARTESIAN_POINT ( 'NONE',  ( -1.892735826383161356E-31, 1.469662432702592669, -5.421010862427522170E-17 ) ) ;
#41 = ORIENTED_EDGE ( 'NONE', *, *, #186, .T. ) ;
#42 = CC_DESIGN_PERSON_AND_ORGANIZATION_ASSIGNMENT ( #114, #199, ( #98 ) ) ;
#43 = CIRCLE ( 'NONE', #152, 1.469662432702592669 ) ;
#44 = ORIENTED_EDGE ( 'NONE', *, *, #61, .T. ) ;
#45 = PERSON_AND_ORGANIZATION_ROLE ( 'classification_officer' ) ;
#46 = EDGE_LOOP ( 'NONE', ( #128 ) ) ;
#47 = MECHANICAL_CONTEXT ( 'NONE', #243, 'mechanical' ) ;
#48 = DIRECTION ( 'NONE',  ( -3.491481338843133355E-15, -5.426192111070407273E-16, -1.000000000000000000 ) ) ;
#49 = EDGE_CURVE ( 'NONE', #173, #173, #107, .T. ) ;
#50 = DATE_AND_TIME ( #74, #97 ) ;
#51 = CARTESIAN_POINT ( 'NONE',  ( 3.800504657850695055E-14, -1.142603647324320876E-15, 10.88507796266771166 ) ) ;
#52 = AXIS2_PLACEMENT_3D ( 'NONE', #170, #94, #92 ) ;
#53 = DIRECTION ( 'NONE',  ( -3.491481338843133355E-15, 1.049697256412017316E-16, -1.000000000000000000 ) ) ;
#54 = CALENDAR_DATE ( 2021, 26, 11 ) ;
#55 = DIRECTION ( 'NONE',  ( 3.664998382197393967E-31, 1.000000000000000000, 1.049697256412017316E-16 ) ) ;
#56 = PRODUCT_RELATED_PRODUCT_CATEGORY ( 'detail', '', ( #81 ) ) ;
#57 = AXIS2_PLACEMENT_3D ( 'NONE', #124, #147, #126 ) ;
#58 = FACE_OUTER_BOUND ( 'NONE', #30, .T. ) ;
#59 = CARTESIAN_POINT ( 'NONE',  ( 2.433562493173664138E-13, 1.499999999999990230, 69.70000000000001705 ) ) ;
#60 = CC_DESIGN_DATE_AND_TIME_ASSIGNMENT ( #50, #197, ( #98 ) ) ;
#61 = EDGE_CURVE ( 'NONE', #190, #190, #63, .T. ) ;
#62 = EDGE_LOOP ( 'NONE', ( #99 ) ) ;
#63 = CIRCLE ( 'NONE', #193, 1.499999999999997558 ) ;
#64 = CC_DESIGN_PERSON_AND_ORGANIZATION_ASSIGNMENT ( #149, #12, ( #111 ) ) ;
#65 = ORIENTED_EDGE ( 'NONE', *, *, #77, .F. ) ;
#66 = PERSON_AND_ORGANIZATION ( #4, #166 ) ;
#67 = AXIS2_PLACEMENT_3D ( 'NONE', #219, #53, #182 ) ;
#68 = DIRECTION ( 'NONE',  ( -1.894544849678015344E-30, 1.000000000000000000, -5.426192111070407273E-16 ) ) ;
#69 = APPROVAL_DATE_TIME ( #106, #230 ) ;
#70 = ORIENTED_EDGE ( 'NONE', *, *, #96, .F. ) ;
#71 = DATE_AND_TIME ( #54, #206 ) ;
#72 = LOCAL_TIME ( 14, 1, 34.00000000000000000, #195 ) ;
#73 = PLANE ( 'NONE',  #57 ) ;
#74 = CALENDAR_DATE ( 2021, 26, 11 ) ;
#75 = FACE_OUTER_BOUND ( 'NONE', #83, .T. ) ;
#76 = APPROVAL_DATE_TIME ( #71, #208 ) ;
#77 = EDGE_CURVE ( 'NONE', #20, #20, #80, .T. ) ;
#78 = DIRECTION ( 'NONE',  ( -1.894544849678015344E-30, 1.000000000000000000, -5.426192111070407273E-16 ) ) ;
#79 = CC_DESIGN_DATE_AND_TIME_ASSIGNMENT ( #201, #31, ( #224 ) ) ;
#80 = CIRCLE ( 'NONE', #11, 1.613999999999999879 ) ;
#81 = PRODUCT ( '321226', '321226', '', ( #47 ) ) ;
#82 = AXIS2_PLACEMENT_3D ( 'NONE', #220, #117, #55 ) ;
#83 = EDGE_LOOP ( 'NONE', ( #228 ) ) ;
#84 = EDGE_LOOP ( 'NONE', ( #133 ) ) ;
#85 = DATE_AND_TIME ( #168, #154 ) ;
#86 = CIRCLE ( 'NONE', #101, 1.499999999999992673 ) ;
#87 = DIRECTION ( 'NONE',  ( -3.491481338843133355E-15, 1.049697256412017316E-16, -1.000000000000000000 ) ) ;
#88 = CALENDAR_DATE ( 2021, 26, 11 ) ;
#89 = FACE_OUTER_BOUND ( 'NONE', #62, .T. ) ;
#90 = CC_DESIGN_APPROVAL ( #208, ( #224 ) ) ;
#91 = EDGE_LOOP ( 'NONE', ( #5 ) ) ;
#92 = DIRECTION ( 'NONE',  ( 1.894544849678015344E-30, -1.000000000000000000, 5.426192111070407273E-16 ) ) ;
#93 = AXIS2_PLACEMENT_3D ( 'NONE', #163, #231, #68 ) ;
#94 = DIRECTION ( 'NONE',  ( 3.491481338843133355E-15, 5.426192111070407273E-16, 1.000000000000000000 ) ) ;
#95 = CARTESIAN_POINT ( 'NONE',  ( 3.800504657850695686E-14, 1.613999999999998991, 10.88507796266771344 ) ) ;
#96 = EDGE_CURVE ( 'NONE', #115, #115, #43, .T. ) ;
#97 = LOCAL_TIME ( 14, 1, 34.00000000000000000, #212 ) ;
#98 = PRODUCT_DEFINITION ( 'UNKNOWN', '', #111, #188 ) ;
#99 = ORIENTED_EDGE ( 'NONE', *, *, #96, .T. ) ;
#100 = CC_DESIGN_PERSON_AND_ORGANIZATION_ASSIGNMENT ( #144, #45, ( #224 ) ) ;
#101 = AXIS2_PLACEMENT_3D ( 'NONE', #25, #211, #159 ) ;
#102 = DIRECTION ( 'NONE',  ( -3.491481338843133355E-15, -5.426192111070407273E-16, -1.000000000000000000 ) ) ;
#103 = CC_DESIGN_PERSON_AND_ORGANIZATION_ASSIGNMENT ( #8, #180, ( #81 ) ) ;
#104 = CARTESIAN_POINT ( 'NONE',  ( 0.0000000000000000000, 0.0000000000000000000, 0.0000000000000000000 ) ) ;
#105 = CARTESIAN_POINT ( 'NONE',  ( 2.444036937190193601E-13, -7.347880794884121511E-15, 70.00000000000000000 ) ) ;
#106 = DATE_AND_TIME ( #232, #72 ) ;
#107 = CIRCLE ( 'NONE', #242, 1.613999999999998769 ) ;
#108 = CARTESIAN_POINT ( 'NONE',  ( 3.800504657850695055E-14, -1.142603647324320876E-15, 10.88507796266771166 ) ) ;
#109 = APPROVAL_STATUS ( 'not_yet_approved' ) ;
#110 = DIRECTION ( 'NONE',  ( -3.491481338843133355E-15, 1.049697256412017316E-16, -1.000000000000000000 ) ) ;
#111 = PRODUCT_DEFINITION_FORMATION_WITH_SPECIFIED_SOURCE ( 'ANY', '', #81, .NOT_KNOWN. ) ;
#112 = PERSON_AND_ORGANIZATION ( #4, #166 ) ;
#113 = DIRECTION ( 'NONE',  ( 3.491481338843133355E-15, -1.049697256412017316E-16, 1.000000000000000000 ) ) ;
#114 = PERSON_AND_ORGANIZATION ( #4, #166 ) ;
#115 = VERTEX_POINT ( 'NONE', #40 ) ;
#116 = AXIS2_PLACEMENT_3D ( 'NONE', #6, #235, #78 ) ;
#117 = DIRECTION ( 'NONE',  ( -3.491481338843133355E-15, 1.049697256412017316E-16, -1.000000000000000000 ) ) ;
#118 =( GEOMETRIC_REPRESENTATION_CONTEXT ( 3 ) GLOBAL_UNCERTAINTY_ASSIGNED_CONTEXT ( ( #1 ) ) GLOBAL_UNIT_ASSIGNED_CONTEXT ( ( #240, #204, #137 ) ) REPRESENTATION_CONTEXT ( 'NONE', 'WORKASPACE' ) );
#119 = CARTESIAN_POINT ( 'NONE',  ( 3.869445280877825814E-14, 1.499999999999991562, 11.08253175473057794 ) ) ;
#120 = CARTESIAN_POINT ( 'NONE',  ( 2.444036937190193601E-13, -7.347880794884121511E-15, 70.00000000000000000 ) ) ;
#121 = EDGE_LOOP ( 'NONE', ( #65 ) ) ;
#122 = ORIENTED_EDGE ( 'NONE', *, *, #21, .T. ) ;
#123 = CONICAL_SURFACE ( 'NONE', #67, 1.499999999999997558, 0.7853981633974573828 ) ;
#124 = CARTESIAN_POINT ( 'NONE',  ( 3.800504657850695686E-14, 5.906452416941388187E-15, 10.88507796266771344 ) ) ;
#125 = APPROVAL_STATUS ( 'not_yet_approved' ) ;
#126 = DIRECTION ( 'NONE',  ( 1.894544849678015344E-30, -1.000000000000000000, 5.426192111070407273E-16 ) ) ;
#127 = APPROVAL_STATUS ( 'not_yet_approved' ) ;
#128 = ORIENTED_EDGE ( 'NONE', *, *, #158, .T. ) ;
#129 = COORDINATED_UNIVERSAL_TIME_OFFSET ( 1, 0, .AHEAD. ) ;
#130 = AXIS2_PLACEMENT_3D ( 'NONE', #183, #48, #28 ) ;
#131 = DIRECTION ( 'NONE',  ( 0.0000000000000000000, 1.000000000000000000, 0.0000000000000000000 ) ) ;
#132 = ADVANCED_FACE ( 'NONE', ( #14, #75 ), #198, .T. ) ;
#133 = ORIENTED_EDGE ( 'NONE', *, *, #158, .F. ) ;
#134 = FACE_OUTER_BOUND ( 'NONE', #22, .T. ) ;
#135 = VERTEX_POINT ( 'NONE', #187 ) ;
#136 = FACE_OUTER_BOUND ( 'NONE', #225, .T. ) ;
#137 =( NAMED_UNIT ( * ) SI_UNIT ( $, .STERADIAN. ) SOLID_ANGLE_UNIT ( ) );
#138 = AXIS2_PLACEMENT_3D ( 'NONE', #105, #113, #233 ) ;
#139 = CC_DESIGN_SECURITY_CLASSIFICATION ( #224, ( #111 ) ) ;
#140 = ADVANCED_FACE ( 'NONE', ( #26, #145 ), #123, .T. ) ;
#141 = FACE_OUTER_BOUND ( 'NONE', #84, .T. ) ;
#142 = DIRECTION ( 'NONE',  ( 0.0000000000000000000, 0.0000000000000000000, 1.000000000000000000 ) ) ;
#143 = ORIENTED_EDGE ( 'NONE', *, *, #21, .F. ) ;
#144 = PERSON_AND_ORGANIZATION ( #4, #166 ) ;
#145 = FACE_OUTER_BOUND ( 'NONE', #177, .T. ) ;
#146 = SHAPE_DEFINITION_REPRESENTATION ( #2, #174 ) ;
#147 = DIRECTION ( 'NONE',  ( 3.491481338843133355E-15, 5.426192111070407273E-16, 1.000000000000000000 ) ) ;
#148 = ADVANCED_FACE ( 'NONE', ( #165 ), #32, .T. ) ;
#149 = PERSON_AND_ORGANIZATION ( #4, #166 ) ;
#150 = DIRECTION ( 'NONE',  ( -3.491481338843133355E-15, -5.426192111070407273E-16, -1.000000000000000000 ) ) ;
#151 = CYLINDRICAL_SURFACE ( 'NONE', #82, 1.499999999999995337 ) ;
#152 = AXIS2_PLACEMENT_3D ( 'NONE', #7, #102, #200 ) ;
#153 = FACE_BOUND ( 'NONE', #155, .T. ) ;
#154 = LOCAL_TIME ( 14, 1, 34.00000000000000000, #129 ) ;
#155 = EDGE_LOOP ( 'NONE', ( #70 ) ) ;
#156 = EDGE_LOOP ( 'NONE', ( #41 ) ) ;
#157 = CIRCLE ( 'NONE', #34, 1.199999999999997513 ) ;
#158 = EDGE_CURVE ( 'NONE', #135, #135, #226, .T. ) ;
#159 = DIRECTION ( 'NONE',  ( 0.0000000000000000000, 1.000000000000000000, 0.0000000000000000000 ) ) ;
#160 = APPROVAL_PERSON_ORGANIZATION ( #112, #15, #229 ) ;
#161 = EDGE_LOOP ( 'NONE', ( #143 ) ) ;
#162 = PERSON_AND_ORGANIZATION ( #4, #166 ) ;
#163 = CARTESIAN_POINT ( 'NONE',  ( 0.0000000000000000000, 0.0000000000000000000, 0.0000000000000000000 ) ) ;
#164 = APPROVAL_ROLE ( '' ) ;
#165 = FACE_OUTER_BOUND ( 'NONE', #91, .T. ) ;
#166 = ORGANIZATION ( 'UNSPECIFIED', 'UNSPECIFIED', '' ) ;
#167 = DIRECTION ( 'NONE',  ( -1.909224232354138771E-30, 1.000000000000000000, -5.373988463373012902E-16 ) ) ;
#168 = CALENDAR_DATE ( 2021, 26, 11 ) ;
#169 = CLOSED_SHELL ( 'NONE', ( #148, #140, #241, #35, #181 ) ) ;
#170 = CARTESIAN_POINT ( 'NONE',  ( 2.595067810003643879E-30, 4.033055059374952333E-31, 7.432569612024600143E-16 ) ) ;
#171 = ADVANCED_FACE ( 'NONE', ( #89 ), #13, .T. ) ;
#172 = DIRECTION ( 'NONE',  ( 0.0000000000000000000, 1.000000000000000000, 0.0000000000000000000 ) ) ;
#173 = VERTEX_POINT ( 'NONE', #207 ) ;
#174 = ADVANCED_BREP_SHAPE_REPRESENTATION ( '321226', ( #189, #24, #9 ), #118 ) ;
#175 = ORIENTED_EDGE ( 'NONE', *, *, #49, .T. ) ;
#176 = CONICAL_SURFACE ( 'NONE', #179, 1.613999999999999879, 0.5235987755982940417 ) ;
#177 = EDGE_LOOP ( 'NONE', ( #213 ) ) ;
#178 = CARTESIAN_POINT ( 'NONE',  ( 2.433562493173664138E-13, -7.316389877191761450E-15, 69.70000000000001705 ) ) ;
#179 = AXIS2_PLACEMENT_3D ( 'NONE', #108, #110, #131 ) ;
#180 = PERSON_AND_ORGANIZATION_ROLE ( 'design_owner' ) ;
#181 = ADVANCED_FACE ( 'NONE', ( #58 ), #38, .T. ) ;
#182 = DIRECTION ( 'NONE',  ( 0.0000000000000000000, 1.000000000000000000, 0.0000000000000000000 ) ) ;
#183 = CARTESIAN_POINT ( 'NONE',  ( 3.800504657850695686E-14, 5.906452416941388976E-15, 10.88507796266771344 ) ) ;
#184 = APPROVAL_PERSON_ORGANIZATION ( #29, #208, #27 ) ;
#185 = VERTEX_POINT ( 'NONE', #239 ) ;
#186 = EDGE_CURVE ( 'NONE', #185, #185, #157, .T. ) ;
#187 = CARTESIAN_POINT ( 'NONE',  ( 3.800504657850695686E-14, 1.613999999999998991, 10.88507796266771166 ) ) ;
#188 = DESIGN_CONTEXT ( 'detailed design', #36, 'design' ) ;
#189 = MANIFOLD_SOLID_BREP ( 'Corps-Déplacer/Copier1[1]', #169 ) ;
#190 = VERTEX_POINT ( 'NONE', #59 ) ;
#191 = ORIENTED_EDGE ( 'NONE', *, *, #77, .T. ) ;
#192 = EDGE_LOOP ( 'NONE', ( #122 ) ) ;
#193 = AXIS2_PLACEMENT_3D ( 'NONE', #178, #217, #237 ) ;
#194 = FACE_OUTER_BOUND ( 'NONE', #121, .T. ) ;
#195 = COORDINATED_UNIVERSAL_TIME_OFFSET ( 1, 0, .AHEAD. ) ;
#196 = FACE_BOUND ( 'NONE', #192, .T. ) ;
#197 = DATE_TIME_ROLE ( 'creation_date' ) ;
#198 = CYLINDRICAL_SURFACE ( 'NONE', #93, 1.613999999999995882 ) ;
#199 = PERSON_AND_ORGANIZATION_ROLE ( 'creator' ) ;
#200 = DIRECTION ( 'NONE',  ( -1.894544849678015344E-30, 1.000000000000000000, -5.426192111070407273E-16 ) ) ;
#201 = DATE_AND_TIME ( #88, #39 ) ;
#202 = FACE_OUTER_BOUND ( 'NONE', #161, .T. ) ;
#203 = CONICAL_SURFACE ( 'NONE', #52, 1.469662432702592669, 0.5235987755982971503 ) ;
#204 =( NAMED_UNIT ( * ) PLANE_ANGLE_UNIT ( ) SI_UNIT ( $, .RADIAN. ) );
#205 = DIRECTION ( 'NONE',  ( -3.491481338843133355E-15, 1.049697256412017316E-16, -1.000000000000000000 ) ) ;
#206 = LOCAL_TIME ( 14, 1, 34.00000000000000000, #234 ) ;
#207 = CARTESIAN_POINT ( 'NONE',  ( 8.728703347107831416E-16, 1.613999999999998991, 0.2499999999999999445 ) ) ;
#208 = APPROVAL ( #127, 'UNSPECIFIED' ) ;
#209 = APPROVAL_PERSON_ORGANIZATION ( #162, #230, #164 ) ;
#210 = CLOSED_SHELL ( 'NONE', ( #18, #132, #227, #171 ) ) ;
#211 = DIRECTION ( 'NONE',  ( -3.491481338843133355E-15, 1.049697256412017316E-16, -1.000000000000000000 ) ) ;
#212 = COORDINATED_UNIVERSAL_TIME_OFFSET ( 1, 0, .AHEAD. ) ;
#213 = ORIENTED_EDGE ( 'NONE', *, *, #61, .F. ) ;
#214 = COORDINATED_UNIVERSAL_TIME_OFFSET ( 1, 0, .AHEAD. ) ;
#215 = DIRECTION ( 'NONE',  ( 0.0000000000000000000, 1.000000000000000000, 0.0000000000000000000 ) ) ;
#216 = DIRECTION ( 'NONE',  ( 1.000000000000000000, 0.0000000000000000000, 0.0000000000000000000 ) ) ;
#217 = DIRECTION ( 'NONE',  ( -3.491481338843133355E-15, 1.049697256412017316E-16, -1.000000000000000000 ) ) ;
#218 = APPROVAL_DATE_TIME ( #85, #15 ) ;
#219 = CARTESIAN_POINT ( 'NONE',  ( 2.433562493173664138E-13, -7.316389877191761450E-15, 69.70000000000001705 ) ) ;
#220 = CARTESIAN_POINT ( 'NONE',  ( 0.0000000000000000000, 0.0000000000000000000, 0.0000000000000000000 ) ) ;
#221 = APPLICATION_PROTOCOL_DEFINITION ( 'international standard', 'config_control_design', 1994, #243 ) ;
#222 = DIRECTION ( 'NONE',  ( 3.664998382197393967E-31, 1.000000000000000000, 1.049697256412017316E-16 ) ) ;
#223 = CC_DESIGN_APPROVAL ( #230, ( #111 ) ) ;
#224 = SECURITY_CLASSIFICATION ( '', '', #236 ) ;
#225 = EDGE_LOOP ( 'NONE', ( #175 ) ) ;
#226 = CIRCLE ( 'NONE', #130, 1.613999999999992996 ) ;
#227 = ADVANCED_FACE ( 'NONE', ( #136, #153 ), #203, .T. ) ;
#228 = ORIENTED_EDGE ( 'NONE', *, *, #49, .F. ) ;
#229 = APPROVAL_ROLE ( '' ) ;
#230 = APPROVAL ( #109, 'UNSPECIFIED' ) ;
#231 = DIRECTION ( 'NONE',  ( -3.491481338843133355E-15, -5.426192111070407273E-16, -1.000000000000000000 ) ) ;
#232 = CALENDAR_DATE ( 2021, 26, 11 ) ;
#233 = DIRECTION ( 'NONE',  ( -3.664998382197393967E-31, -1.000000000000000000, -1.049697256412017316E-16 ) ) ;
#234 = COORDINATED_UNIVERSAL_TIME_OFFSET ( 1, 0, .AHEAD. ) ;
#235 = DIRECTION ( 'NONE',  ( -3.491481338843133355E-15, -5.426192111070407273E-16, -1.000000000000000000 ) ) ;
#236 = SECURITY_CLASSIFICATION_LEVEL ( 'unclassified' ) ;
#237 = DIRECTION ( 'NONE',  ( 0.0000000000000000000, 1.000000000000000000, 0.0000000000000000000 ) ) ;
#238 = CC_DESIGN_PERSON_AND_ORGANIZATION_ASSIGNMENT ( #66, #16, ( #111 ) ) ;
#239 = CARTESIAN_POINT ( 'NONE',  ( 2.444036937190193601E-13, 1.199999999999990186, 70.00000000000000000 ) ) ;
#240 =( LENGTH_UNIT ( ) NAMED_UNIT ( * ) SI_UNIT ( .MILLI., .METRE. ) );
#241 = ADVANCED_FACE ( 'NONE', ( #134, #202 ), #151, .T. ) ;
#242 = AXIS2_PLACEMENT_3D ( 'NONE', #10, #150, #167 ) ;
#243 = APPLICATION_CONTEXT ( 'configuration controlled 3d designs of mechanical parts and assemblies' ) ;
ENDSEC;
END-ISO-10303-21;
