ISO-10303-21;
HEADER;
FILE_DESCRIPTION (( 'STEP AP203' ),
    '1' );
FILE_NAME ('321225.step',
    '2021-11-26T13:01:33',
    ( '' ),
    ( '' ),
    'SwSTEP 2.0',
    'SolidWorks 2019',
    '' );
FILE_SCHEMA (( 'CONFIG_CONTROL_DESIGN' ));
ENDSEC;

DATA;
#1 = DIRECTION ( 'NONE',  ( -3.491481338843133355E-15, -5.419931293566101594E-16, -1.000000000000000000 ) ) ;
#2 = AXIS2_PLACEMENT_3D ( 'NONE', #187, #241, #172 ) ;
#3 = ADVANCED_FACE ( 'NONE', ( #119, #97 ), #189, .T. ) ;
#4 = PERSON_AND_ORGANIZATION ( #230, #194 ) ;
#5 = PRODUCT ( '321225', '321225', '', ( #28 ) ) ;
#6 = APPROVAL_DATE_TIME ( #232, #144 ) ;
#7 = PRODUCT_DEFINITION_SHAPE ( 'NONE', 'NONE',  #26 ) ;
#8 = CARTESIAN_POINT ( 'NONE',  ( 8.728703347107831416E-16, 1.608999999999998654, 0.2499999999999999445 ) ) ;
#9 = CC_DESIGN_PERSON_AND_ORGANIZATION_ASSIGNMENT ( #72, #128, ( #40 ) ) ;
#10 = ORIENTED_EDGE ( 'NONE', *, *, #235, .F. ) ;
#11 = DATE_TIME_ROLE ( 'creation_date' ) ;
#12 = CALENDAR_DATE ( 2021, 26, 11 ) ;
#13 = AXIS2_PLACEMENT_3D ( 'NONE', #155, #1, #41 ) ;
#14 = CC_DESIGN_APPROVAL ( #96, ( #40 ) ) ;
#15 = DIRECTION ( 'NONE',  ( -3.491481338843133355E-15, -5.419931293566101594E-16, -1.000000000000000000 ) ) ;
#16 = DIRECTION ( 'NONE',  ( 0.0000000000000000000, 1.000000000000000000, 0.0000000000000000000 ) ) ;
#17 = MANIFOLD_SOLID_BREP ( 'Corps-Déplacer/Copier1[2]', #227 ) ;
#18 = ADVANCED_FACE ( 'NONE', ( #154, #99 ), #62, .T. ) ;
#19 = DIRECTION ( 'NONE',  ( -3.491481338843133355E-15, 1.049697256412017316E-16, -1.000000000000000000 ) ) ;
#20 = CARTESIAN_POINT ( 'NONE',  ( 2.433562493173664138E-13, -7.316389877191761450E-15, 69.70000000000001705 ) ) ;
#21 = EDGE_CURVE ( 'NONE', #123, #123, #126, .T. ) ;
#22 = AXIS2_PLACEMENT_3D ( 'NONE', #106, #193, #228 ) ;
#23 = PERSON_AND_ORGANIZATION ( #230, #194 ) ;
#24 = COORDINATED_UNIVERSAL_TIME_OFFSET ( 1, 0, .AHEAD. ) ;
#25 = FACE_OUTER_BOUND ( 'NONE', #146, .T. ) ;
#26 = PRODUCT_DEFINITION ( 'UNKNOWN', '', #40, #222 ) ;
#27 = AXIS2_PLACEMENT_3D ( 'NONE', #82, #138, #173 ) ;
#28 = MECHANICAL_CONTEXT ( 'NONE', #114, 'mechanical' ) ;
#29 = CALENDAR_DATE ( 2021, 26, 11 ) ;
#30 = ORIENTED_EDGE ( 'NONE', *, *, #47, .T. ) ;
#31 = CC_DESIGN_PERSON_AND_ORGANIZATION_ASSIGNMENT ( #23, #103, ( #5 ) ) ;
#32 = DATE_AND_TIME ( #12, #71 ) ;
#33 = ORIENTED_EDGE ( 'NONE', *, *, #167, .T. ) ;
#34 = PERSON_AND_ORGANIZATION_ROLE ( 'classification_officer' ) ;
#35 = ORIENTED_EDGE ( 'NONE', *, *, #47, .F. ) ;
#36 = COORDINATED_UNIVERSAL_TIME_OFFSET ( 1, 0, .AHEAD. ) ;
#37 = CC_DESIGN_PERSON_AND_ORGANIZATION_ASSIGNMENT ( #88, #215, ( #26 ) ) ;
#38 = CARTESIAN_POINT ( 'NONE',  ( 3.803528369386972559E-14, 1.608999999999998654, 10.89373821670555564 ) ) ;
#39 = AXIS2_PLACEMENT_3D ( 'NONE', #168, #100, #116 ) ;
#40 = PRODUCT_DEFINITION_FORMATION_WITH_SPECIFIED_SOURCE ( 'ANY', '', #5, .NOT_KNOWN. ) ;
#41 = DIRECTION ( 'NONE',  ( -1.892358896929796919E-30, 1.000000000000000000, -5.419931293566101594E-16 ) ) ;
#42 = CYLINDRICAL_SURFACE ( 'NONE', #118, 1.499999999999995337 ) ;
#43 = DIRECTION ( 'NONE',  ( -3.491481338843133355E-15, -5.419931293566101594E-16, -1.000000000000000000 ) ) ;
#44 = CIRCLE ( 'NONE', #113, 1.199999999999997513 ) ;
#45 = DIRECTION ( 'NONE',  ( 0.0000000000000000000, 1.000000000000000000, 0.0000000000000000000 ) ) ;
#46 =( GEOMETRIC_REPRESENTATION_CONTEXT ( 3 ) GLOBAL_UNCERTAINTY_ASSIGNED_CONTEXT ( ( #150 ) ) GLOBAL_UNIT_ASSIGNED_CONTEXT ( ( #195, #214, #229 ) ) REPRESENTATION_CONTEXT ( 'NONE', 'WORKASPACE' ) );
#47 = EDGE_CURVE ( 'NONE', #107, #107, #218, .T. ) ;
#48 = CC_DESIGN_APPROVAL ( #144, ( #26 ) ) ;
#49 = CARTESIAN_POINT ( 'NONE',  ( -1.892735826383161356E-31, 1.464662432702592554, -5.421010862427522170E-17 ) ) ;
#50 = ADVANCED_FACE ( 'NONE', ( #207, #95 ), #42, .T. ) ;
#51 = CARTESIAN_POINT ( 'NONE',  ( 2.433562493173664138E-13, -7.316389877191761450E-15, 69.70000000000001705 ) ) ;
#52 = DIRECTION ( 'NONE',  ( 3.664998382197393967E-31, 1.000000000000000000, 1.049697256412017316E-16 ) ) ;
#53 = APPROVAL_PERSON_ORGANIZATION ( #4, #144, #122 ) ;
#54 = APPROVAL_DATE_TIME ( #93, #96 ) ;
#55 = EDGE_LOOP ( 'NONE', ( #152 ) ) ;
#56 = PERSON_AND_ORGANIZATION ( #230, #194 ) ;
#57 = DIRECTION ( 'NONE',  ( 1.892358896929796919E-30, -1.000000000000000000, 5.419931293566101594E-16 ) ) ;
#58 = CIRCLE ( 'NONE', #192, 1.499999999999997558 ) ;
#59 = CARTESIAN_POINT ( 'NONE',  ( 3.803528369386971928E-14, -1.143512711814656206E-15, 10.89373821670555387 ) ) ;
#60 = DIRECTION ( 'NONE',  ( 0.0000000000000000000, 1.000000000000000000, -1.078137648214303720E-15 ) ) ;
#61 = EDGE_CURVE ( 'NONE', #179, #179, #44, .T. ) ;
#62 = CYLINDRICAL_SURFACE ( 'NONE', #2, 1.608999999999995545 ) ;
#63 = CC_DESIGN_APPROVAL ( #200, ( #185 ) ) ;
#64 = DIRECTION ( 'NONE',  ( 0.0000000000000000000, 1.000000000000000000, 0.0000000000000000000 ) ) ;
#65 = DIRECTION ( 'NONE',  ( 1.000000000000000000, 0.0000000000000000000, 0.0000000000000000000 ) ) ;
#66 = PLANE ( 'NONE',  #22 ) ;
#67 = AXIS2_PLACEMENT_3D ( 'NONE', #221, #239, #57 ) ;
#68 = ADVANCED_FACE ( 'NONE', ( #211, #169 ), #175, .T. ) ;
#69 = SECURITY_CLASSIFICATION_LEVEL ( 'unclassified' ) ;
#70 = AXIS2_PLACEMENT_3D ( 'NONE', #81, #15, #224 ) ;
#71 = LOCAL_TIME ( 14, 1, 33.00000000000000000, #36 ) ;
#72 = PERSON_AND_ORGANIZATION ( #230, #194 ) ;
#73 = EDGE_CURVE ( 'NONE', #160, #160, #181, .T. ) ;
#74 = COORDINATED_UNIVERSAL_TIME_OFFSET ( 1, 0, .AHEAD. ) ;
#75 = ORIENTED_EDGE ( 'NONE', *, *, #73, .T. ) ;
#76 = DATE_TIME_ROLE ( 'classification_date' ) ;
#77 = APPROVAL_PERSON_ORGANIZATION ( #149, #200, #217 ) ;
#78 = DIRECTION ( 'NONE',  ( 3.664998382197393967E-31, 1.000000000000000000, 1.049697256412017316E-16 ) ) ;
#79 = FACE_OUTER_BOUND ( 'NONE', #147, .T. ) ;
#80 = LOCAL_TIME ( 14, 1, 33.00000000000000000, #74 ) ;
#81 = CARTESIAN_POINT ( 'NONE',  ( 2.582393402885274633E-30, 4.008726800537365805E-31, 7.396268667272683639E-16 ) ) ;
#82 = CARTESIAN_POINT ( 'NONE',  ( 2.444036937190193601E-13, -7.347880794884121511E-15, 70.00000000000000000 ) ) ;
#83 = VERTEX_POINT ( 'NONE', #8 ) ;
#84 = CLOSED_SHELL ( 'NONE', ( #94, #87, #50, #68, #204 ) ) ;
#85 = DIRECTION ( 'NONE',  ( 0.0000000000000000000, 0.0000000000000000000, 1.000000000000000000 ) ) ;
#86 = CARTESIAN_POINT ( 'NONE',  ( 0.0000000000000000000, 0.0000000000000000000, 0.0000000000000000000 ) ) ;
#87 = ADVANCED_FACE ( 'NONE', ( #188, #191 ), #170, .T. ) ;
#88 = PERSON_AND_ORGANIZATION ( #230, #194 ) ;
#89 = APPROVAL_DATE_TIME ( #145, #200 ) ;
#90 = PERSON_AND_ORGANIZATION ( #230, #194 ) ;
#91 = ORIENTED_EDGE ( 'NONE', *, *, #73, .F. ) ;
#92 = EDGE_LOOP ( 'NONE', ( #237 ) ) ;
#93 = DATE_AND_TIME ( #132, #196 ) ;
#94 = ADVANCED_FACE ( 'NONE', ( #140 ), #98, .T. ) ;
#95 = FACE_OUTER_BOUND ( 'NONE', #110, .T. ) ;
#96 = APPROVAL ( #202, 'UNSPECIFIED' ) ;
#97 = FACE_BOUND ( 'NONE', #92, .T. ) ;
#98 = PLANE ( 'NONE',  #27 ) ;
#99 = FACE_OUTER_BOUND ( 'NONE', #55, .T. ) ;
#100 = DIRECTION ( 'NONE',  ( -3.491481338843133355E-15, 1.049697256412017316E-16, -1.000000000000000000 ) ) ;
#101 = VERTEX_POINT ( 'NONE', #158 ) ;
#102 = AXIS2_PLACEMENT_3D ( 'NONE', #153, #43, #60 ) ;
#103 = PERSON_AND_ORGANIZATION_ROLE ( 'design_owner' ) ;
#104 = MANIFOLD_SOLID_BREP ( 'Corps-Déplacer/Copier1[1]', #84 ) ;
#105 = CARTESIAN_POINT ( 'NONE',  ( 2.444036937190193601E-13, 1.199999999999990186, 70.00000000000000000 ) ) ;
#106 = CARTESIAN_POINT ( 'NONE',  ( 3.803528369386972559E-14, 5.904331266463942043E-15, 10.89373821670555564 ) ) ;
#107 = VERTEX_POINT ( 'NONE', #161 ) ;
#108 = SHAPE_DEFINITION_REPRESENTATION ( #7, #130 ) ;
#109 = ORIENTED_EDGE ( 'NONE', *, *, #142, .T. ) ;
#110 = EDGE_LOOP ( 'NONE', ( #35 ) ) ;
#111 = EDGE_LOOP ( 'NONE', ( #171 ) ) ;
#112 = PERSON_AND_ORGANIZATION ( #230, #194 ) ;
#113 = AXIS2_PLACEMENT_3D ( 'NONE', #225, #141, #16 ) ;
#114 = APPLICATION_CONTEXT ( 'configuration controlled 3d designs of mechanical parts and assemblies' ) ;
#115 = DIRECTION ( 'NONE',  ( -3.491481338843133355E-15, 1.049697256412017316E-16, -1.000000000000000000 ) ) ;
#116 = DIRECTION ( 'NONE',  ( 0.0000000000000000000, 1.000000000000000000, 0.0000000000000000000 ) ) ;
#117 = EDGE_LOOP ( 'NONE', ( #75 ) ) ;
#118 = AXIS2_PLACEMENT_3D ( 'NONE', #226, #243, #78 ) ;
#119 = FACE_OUTER_BOUND ( 'NONE', #219, .T. ) ;
#120 = DIRECTION ( 'NONE',  ( 0.0000000000000000000, 1.000000000000000000, 0.0000000000000000000 ) ) ;
#121 = CC_DESIGN_PERSON_AND_ORGANIZATION_ASSIGNMENT ( #112, #236, ( #40 ) ) ;
#122 = APPROVAL_ROLE ( '' ) ;
#123 = VERTEX_POINT ( 'NONE', #180 ) ;
#124 = CARTESIAN_POINT ( 'NONE',  ( 3.803528369386972559E-14, 1.608999999999998654, 10.89373821670555387 ) ) ;
#125 = CC_DESIGN_DATE_AND_TIME_ASSIGNMENT ( #166, #11, ( #26 ) ) ;
#126 = CIRCLE ( 'NONE', #163, 1.608999999999999764 ) ;
#127 = LOCAL_TIME ( 14, 1, 33.00000000000000000, #182 ) ;
#128 = PERSON_AND_ORGANIZATION_ROLE ( 'creator' ) ;
#129 = EDGE_LOOP ( 'NONE', ( #133 ) ) ;
#130 = ADVANCED_BREP_SHAPE_REPRESENTATION ( '321225', ( #104, #17, #213 ), #46 ) ;
#131 = ADVANCED_FACE ( 'NONE', ( #79 ), #186, .T. ) ;
#132 = CALENDAR_DATE ( 2021, 26, 11 ) ;
#133 = ORIENTED_EDGE ( 'NONE', *, *, #61, .T. ) ;
#134 = CC_DESIGN_SECURITY_CLASSIFICATION ( #185, ( #40 ) ) ;
#135 = EDGE_LOOP ( 'NONE', ( #10 ) ) ;
#136 = DIRECTION ( 'NONE',  ( -3.491481338843133355E-15, -5.419931293566101594E-16, -1.000000000000000000 ) ) ;
#137 = AXIS2_PLACEMENT_3D ( 'NONE', #38, #115, #52 ) ;
#138 = DIRECTION ( 'NONE',  ( 3.491481338843133355E-15, -1.049697256412017316E-16, 1.000000000000000000 ) ) ;
#139 = DIRECTION ( 'NONE',  ( -1.915157185220372990E-30, 1.000000000000000000, -5.390688241071499867E-16 ) ) ;
#140 = FACE_OUTER_BOUND ( 'NONE', #201, .T. ) ;
#141 = DIRECTION ( 'NONE',  ( -3.491481338843133355E-15, 1.049697256412017316E-16, -1.000000000000000000 ) ) ;
#142 = EDGE_CURVE ( 'NONE', #157, #157, #156, .T. ) ;
#143 = APPROVAL_STATUS ( 'not_yet_approved' ) ;
#144 = APPROVAL ( #143, 'UNSPECIFIED' ) ;
#145 = DATE_AND_TIME ( #29, #127 ) ;
#146 = EDGE_LOOP ( 'NONE', ( #91 ) ) ;
#147 = EDGE_LOOP ( 'NONE', ( #109 ) ) ;
#148 = ORIENTED_EDGE ( 'NONE', *, *, #235, .T. ) ;
#149 = PERSON_AND_ORGANIZATION ( #230, #194 ) ;
#150 = UNCERTAINTY_MEASURE_WITH_UNIT (LENGTH_MEASURE( 1.000000000000000082E-05 ), #195, 'distance_accuracy_value', 'NONE');
#151 = CARTESIAN_POINT ( 'NONE',  ( 8.728703347107862970E-16, 1.354982823391529836E-16, 0.2500000000000008327 ) ) ;
#152 = ORIENTED_EDGE ( 'NONE', *, *, #167, .F. ) ;
#153 = CARTESIAN_POINT ( 'NONE',  ( 3.803528369386972559E-14, 5.904331266463942043E-15, 10.89373821670555564 ) ) ;
#154 = FACE_OUTER_BOUND ( 'NONE', #117, .T. ) ;
#155 = CARTESIAN_POINT ( 'NONE',  ( -1.480470284080953430E-30, 1.464662432702592554, -4.240235419879094037E-16 ) ) ;
#156 = CIRCLE ( 'NONE', #70, 1.464662432702592554 ) ;
#157 = VERTEX_POINT ( 'NONE', #49 ) ;
#158 = CARTESIAN_POINT ( 'NONE',  ( 2.433562493173664138E-13, 1.499999999999990230, 69.70000000000001705 ) ) ;
#159 = APPLICATION_PROTOCOL_DEFINITION ( 'international standard', 'config_control_design', 1994, #114 ) ;
#160 = VERTEX_POINT ( 'NONE', #124 ) ;
#161 = CARTESIAN_POINT ( 'NONE',  ( 3.869445280877825814E-14, 1.499999999999991562, 11.08253175473057794 ) ) ;
#162 = COORDINATED_UNIVERSAL_TIME_OFFSET ( 1, 0, .AHEAD. ) ;
#163 = AXIS2_PLACEMENT_3D ( 'NONE', #59, #190, #45 ) ;
#164 = CC_DESIGN_PERSON_AND_ORGANIZATION_ASSIGNMENT ( #90, #34, ( #185 ) ) ;
#165 = ORIENTED_EDGE ( 'NONE', *, *, #61, .F. ) ;
#166 = DATE_AND_TIME ( #233, #80 ) ;
#167 = EDGE_CURVE ( 'NONE', #83, #83, #212, .T. ) ;
#168 = CARTESIAN_POINT ( 'NONE',  ( 3.869445280877825814E-14, -1.163330317703974832E-15, 11.08253175473057794 ) ) ;
#169 = FACE_OUTER_BOUND ( 'NONE', #199, .T. ) ;
#170 = CONICAL_SURFACE ( 'NONE', #238, 1.499999999999997558, 0.7853981633974573828 ) ;
#171 = ORIENTED_EDGE ( 'NONE', *, *, #21, .T. ) ;
#172 = DIRECTION ( 'NONE',  ( -1.892358896929796919E-30, 1.000000000000000000, -5.419931293566102580E-16 ) ) ;
#173 = DIRECTION ( 'NONE',  ( -3.664998382197393967E-31, -1.000000000000000000, -1.049697256412017316E-16 ) ) ;
#174 = CC_DESIGN_DATE_AND_TIME_ASSIGNMENT ( #32, #76, ( #185 ) ) ;
#175 = CONICAL_SURFACE ( 'NONE', #205, 1.608999999999999764, 0.5235987755982908221 ) ;
#176 = APPLICATION_PROTOCOL_DEFINITION ( 'international standard', 'config_control_design', 1994, #242 ) ;
#177 = CALENDAR_DATE ( 2021, 26, 11 ) ;
#178 = PRODUCT_RELATED_PRODUCT_CATEGORY ( 'detail', '', ( #5 ) ) ;
#179 = VERTEX_POINT ( 'NONE', #105 ) ;
#180 = CARTESIAN_POINT ( 'NONE',  ( 3.803528369386971928E-14, 1.608999999999998654, 10.89373821670555387 ) ) ;
#181 = CIRCLE ( 'NONE', #102, 1.608999999999992880 ) ;
#182 = COORDINATED_UNIVERSAL_TIME_OFFSET ( 1, 0, .AHEAD. ) ;
#183 = ORIENTED_EDGE ( 'NONE', *, *, #21, .F. ) ;
#184 = APPROVAL_ROLE ( '' ) ;
#185 = SECURITY_CLASSIFICATION ( '', '', #69 ) ;
#186 = PLANE ( 'NONE',  #13 ) ;
#187 = CARTESIAN_POINT ( 'NONE',  ( 0.0000000000000000000, 0.0000000000000000000, 0.0000000000000000000 ) ) ;
#188 = FACE_BOUND ( 'NONE', #129, .T. ) ;
#189 = CONICAL_SURFACE ( 'NONE', #67, 1.464662432702592554, 0.5235987755982971503 ) ;
#190 = DIRECTION ( 'NONE',  ( -3.491481338843133355E-15, 1.049697256412017316E-16, -1.000000000000000000 ) ) ;
#191 = FACE_OUTER_BOUND ( 'NONE', #135, .T. ) ;
#192 = AXIS2_PLACEMENT_3D ( 'NONE', #51, #216, #64 ) ;
#193 = DIRECTION ( 'NONE',  ( 3.491481338843133355E-15, 5.419931293566101594E-16, 1.000000000000000000 ) ) ;
#194 = ORGANIZATION ( 'UNSPECIFIED', 'UNSPECIFIED', '' ) ;
#195 =( LENGTH_UNIT ( ) NAMED_UNIT ( * ) SI_UNIT ( .MILLI., .METRE. ) );
#196 = LOCAL_TIME ( 14, 1, 33.00000000000000000, #162 ) ;
#197 = APPROVAL_STATUS ( 'not_yet_approved' ) ;
#198 = EDGE_LOOP ( 'NONE', ( #148 ) ) ;
#199 = EDGE_LOOP ( 'NONE', ( #183 ) ) ;
#200 = APPROVAL ( #197, 'UNSPECIFIED' ) ;
#201 = EDGE_LOOP ( 'NONE', ( #165 ) ) ;
#202 = APPROVAL_STATUS ( 'not_yet_approved' ) ;
#203 = PLANE ( 'NONE',  #137 ) ;
#204 = ADVANCED_FACE ( 'NONE', ( #209 ), #203, .T. ) ;
#205 = AXIS2_PLACEMENT_3D ( 'NONE', #210, #223, #120 ) ;
#206 = APPROVAL_PERSON_ORGANIZATION ( #56, #96, #184 ) ;
#207 = FACE_OUTER_BOUND ( 'NONE', #198, .T. ) ;
#208 = ADVANCED_FACE ( 'NONE', ( #25 ), #66, .T. ) ;
#209 = FACE_OUTER_BOUND ( 'NONE', #111, .T. ) ;
#210 = CARTESIAN_POINT ( 'NONE',  ( 3.803528369386971928E-14, -1.143512711814656206E-15, 10.89373821670555387 ) ) ;
#211 = FACE_BOUND ( 'NONE', #220, .T. ) ;
#212 = CIRCLE ( 'NONE', #234, 1.608999999999998431 ) ;
#213 = AXIS2_PLACEMENT_3D ( 'NONE', #86, #85, #65 ) ;
#214 =( NAMED_UNIT ( * ) PLANE_ANGLE_UNIT ( ) SI_UNIT ( $, .RADIAN. ) );
#215 = PERSON_AND_ORGANIZATION_ROLE ( 'creator' ) ;
#216 = DIRECTION ( 'NONE',  ( -3.491481338843133355E-15, 1.049697256412017316E-16, -1.000000000000000000 ) ) ;
#217 = APPROVAL_ROLE ( '' ) ;
#218 = CIRCLE ( 'NONE', #39, 1.499999999999992673 ) ;
#219 = EDGE_LOOP ( 'NONE', ( #33 ) ) ;
#220 = EDGE_LOOP ( 'NONE', ( #30 ) ) ;
#221 = CARTESIAN_POINT ( 'NONE',  ( 2.582393402885274633E-30, 4.008726800537365805E-31, 7.396268667272683639E-16 ) ) ;
#222 = DESIGN_CONTEXT ( 'detailed design', #242, 'design' ) ;
#223 = DIRECTION ( 'NONE',  ( -3.491481338843133355E-15, 1.049697256412017316E-16, -1.000000000000000000 ) ) ;
#224 = DIRECTION ( 'NONE',  ( -1.892358896929796919E-30, 1.000000000000000000, -5.419931293566101594E-16 ) ) ;
#225 = CARTESIAN_POINT ( 'NONE',  ( 2.444036937190193601E-13, -7.347880794884121511E-15, 70.00000000000000000 ) ) ;
#226 = CARTESIAN_POINT ( 'NONE',  ( 0.0000000000000000000, 0.0000000000000000000, 0.0000000000000000000 ) ) ;
#227 = CLOSED_SHELL ( 'NONE', ( #208, #18, #3, #131 ) ) ;
#228 = DIRECTION ( 'NONE',  ( 1.892358896929796919E-30, -1.000000000000000000, 5.419931293566101594E-16 ) ) ;
#229 =( NAMED_UNIT ( * ) SI_UNIT ( $, .STERADIAN. ) SOLID_ANGLE_UNIT ( ) );
#230 = PERSON ( 'UNSPECIFIED', 'UNSPECIFIED', 'UNSPECIFIED', ('UNSPECIFIED'), ('UNSPECIFIED'), ('UNSPECIFIED') ) ;
#231 = LOCAL_TIME ( 14, 1, 33.00000000000000000, #24 ) ;
#232 = DATE_AND_TIME ( #177, #231 ) ;
#233 = CALENDAR_DATE ( 2021, 26, 11 ) ;
#234 = AXIS2_PLACEMENT_3D ( 'NONE', #151, #136, #139 ) ;
#235 = EDGE_CURVE ( 'NONE', #101, #101, #58, .T. ) ;
#236 = PERSON_AND_ORGANIZATION_ROLE ( 'design_supplier' ) ;
#237 = ORIENTED_EDGE ( 'NONE', *, *, #142, .F. ) ;
#238 = AXIS2_PLACEMENT_3D ( 'NONE', #20, #19, #240 ) ;
#239 = DIRECTION ( 'NONE',  ( 3.491481338843133355E-15, 5.419931293566101594E-16, 1.000000000000000000 ) ) ;
#240 = DIRECTION ( 'NONE',  ( 0.0000000000000000000, 1.000000000000000000, 0.0000000000000000000 ) ) ;
#241 = DIRECTION ( 'NONE',  ( -3.491481338843133355E-15, -5.419931293566101594E-16, -1.000000000000000000 ) ) ;
#242 = APPLICATION_CONTEXT ( 'configuration controlled 3d designs of mechanical parts and assemblies' ) ;
#243 = DIRECTION ( 'NONE',  ( -3.491481338843133355E-15, 1.049697256412017316E-16, -1.000000000000000000 ) ) ;
ENDSEC;
END-ISO-10303-21;
