ISO-10303-21;
HEADER;
FILE_DESCRIPTION (( 'STEP AP203' ),
    '1' );
FILE_NAME ('321224.step',
    '2021-11-26T13:01:33',
    ( '' ),
    ( '' ),
    'SwSTEP 2.0',
    'SolidWorks 2019',
    '' );
FILE_SCHEMA (( 'CONFIG_CONTROL_DESIGN' ));
ENDSEC;

DATA;
#1 = DIRECTION ( 'NONE',  ( -3.491481338843133355E-15, 1.049697256412017316E-16, -1.000000000000000000 ) ) ;
#2 = VERTEX_POINT ( 'NONE', #96 ) ;
#3 = APPROVAL ( #173, 'UNSPECIFIED' ) ;
#4 = PERSON_AND_ORGANIZATION ( #11, #39 ) ;
#5 = APPLICATION_CONTEXT ( 'configuration controlled 3d designs of mechanical parts and assemblies' ) ;
#6 = COORDINATED_UNIVERSAL_TIME_OFFSET ( 1, 0, .AHEAD. ) ;
#7 = PERSON_AND_ORGANIZATION ( #11, #39 ) ;
#8 = CONICAL_SURFACE ( 'NONE', #147, 1.499999999999997558, 0.7853981633974573828 ) ;
#9 = DIRECTION ( 'NONE',  ( 0.0000000000000000000, 1.000000000000000000, 0.0000000000000000000 ) ) ;
#10 = DIRECTION ( 'NONE',  ( -1.890176416978166171E-30, 1.000000000000000000, -5.413680422546542168E-16 ) ) ;
#11 = PERSON ( 'UNSPECIFIED', 'UNSPECIFIED', 'UNSPECIFIED', ('UNSPECIFIED'), ('UNSPECIFIED'), ('UNSPECIFIED') ) ;
#12 = CARTESIAN_POINT ( 'NONE',  ( -1.474146544840868224E-30, 1.459662432702592660, -4.222123510845719063E-16 ) ) ;
#13 = CC_DESIGN_APPROVAL ( #73, ( #141 ) ) ;
#14 = CARTESIAN_POINT ( 'NONE',  ( 2.569745924405104221E-30, 3.984493070921067915E-31, 7.360044849205933693E-16 ) ) ;
#15 = CYLINDRICAL_SURFACE ( 'NONE', #176, 1.603999999999995874 ) ;
#16 = DIRECTION ( 'NONE',  ( 3.491481338843133355E-15, -1.049697256412017316E-16, 1.000000000000000000 ) ) ;
#17 = AXIS2_PLACEMENT_3D ( 'NONE', #33, #148, #181 ) ;
#18 = FACE_OUTER_BOUND ( 'NONE', #130, .T. ) ;
#19 = MANIFOLD_SOLID_BREP ( 'Corps-Déplacer/Copier1[2]', #29 ) ;
#20 = DIRECTION ( 'NONE',  ( 1.000000000000000000, 0.0000000000000000000, 0.0000000000000000000 ) ) ;
#21 = VERTEX_POINT ( 'NONE', #80 ) ;
#22 = CIRCLE ( 'NONE', #159, 1.499999999999992673 ) ;
#23 = ADVANCED_FACE ( 'NONE', ( #133 ), #199, .T. ) ;
#24 = MANIFOLD_SOLID_BREP ( 'Corps-Déplacer/Copier1[1]', #162 ) ;
#25 = DATE_AND_TIME ( #156, #85 ) ;
#26 = EDGE_LOOP ( 'NONE', ( #103 ) ) ;
#27 = EDGE_LOOP ( 'NONE', ( #90 ) ) ;
#28 = CARTESIAN_POINT ( 'NONE',  ( 3.806552080923249432E-14, -1.144421776304991930E-15, 10.90239847074339963 ) ) ;
#29 = CLOSED_SHELL ( 'NONE', ( #43, #189, #212, #174 ) ) ;
#30 = EDGE_CURVE ( 'NONE', #171, #171, #34, .T. ) ;
#31 = DIRECTION ( 'NONE',  ( -3.491481338843133355E-15, 1.049697256412017316E-16, -1.000000000000000000 ) ) ;
#32 = FACE_OUTER_BOUND ( 'NONE', #65, .T. ) ;
#33 = CARTESIAN_POINT ( 'NONE',  ( 3.806552080923250063E-14, 5.902210115986491165E-15, 10.90239847074340140 ) ) ;
#34 = CIRCLE ( 'NONE', #226, 1.603999999999998760 ) ;
#35 = DIRECTION ( 'NONE',  ( 3.664998382197393967E-31, 1.000000000000000000, 1.049697256412017316E-16 ) ) ;
#36 = PLANE ( 'NONE',  #198 ) ;
#37 = DIRECTION ( 'NONE',  ( 0.0000000000000000000, 1.000000000000000000, 0.0000000000000000000 ) ) ;
#38 = CC_DESIGN_APPROVAL ( #3, ( #72 ) ) ;
#39 = ORGANIZATION ( 'UNSPECIFIED', 'UNSPECIFIED', '' ) ;
#40 = VERTEX_POINT ( 'NONE', #190 ) ;
#41 =( NAMED_UNIT ( * ) PLANE_ANGLE_UNIT ( ) SI_UNIT ( $, .RADIAN. ) );
#42 = CARTESIAN_POINT ( 'NONE',  ( 3.806552080923249432E-14, 1.603999999999998982, 10.90239847074339963 ) ) ;
#43 = ADVANCED_FACE ( 'NONE', ( #239 ), #187, .T. ) ;
#44 = PRODUCT_DEFINITION_SHAPE ( 'NONE', 'NONE',  #141 ) ;
#45 = CC_DESIGN_DATE_AND_TIME_ASSIGNMENT ( #232, #46, ( #72 ) ) ;
#46 = DATE_TIME_ROLE ( 'classification_date' ) ;
#47 = SHAPE_DEFINITION_REPRESENTATION ( #44, #106 ) ;
#48 = SECURITY_CLASSIFICATION_LEVEL ( 'unclassified' ) ;
#49 = DIRECTION ( 'NONE',  ( 0.0000000000000000000, 1.000000000000000000, 0.0000000000000000000 ) ) ;
#50 = APPROVAL ( #82, 'UNSPECIFIED' ) ;
#51 = AXIS2_PLACEMENT_3D ( 'NONE', #155, #76, #227 ) ;
#52 = DIRECTION ( 'NONE',  ( -1.921127126570810263E-30, 1.000000000000000000, -5.407492132097283003E-16 ) ) ;
#53 = ORIENTED_EDGE ( 'NONE', *, *, #116, .T. ) ;
#54 = UNCERTAINTY_MEASURE_WITH_UNIT (LENGTH_MEASURE( 1.000000000000000082E-05 ), #168, 'distance_accuracy_value', 'NONE');
#55 = CARTESIAN_POINT ( 'NONE',  ( 0.0000000000000000000, 0.0000000000000000000, 0.0000000000000000000 ) ) ;
#56 =( NAMED_UNIT ( * ) SI_UNIT ( $, .STERADIAN. ) SOLID_ANGLE_UNIT ( ) );
#57 = APPLICATION_PROTOCOL_DEFINITION ( 'international standard', 'config_control_design', 1994, #5 ) ;
#58 = AXIS2_PLACEMENT_3D ( 'NONE', #14, #243, #95 ) ;
#59 = CC_DESIGN_PERSON_AND_ORGANIZATION_ASSIGNMENT ( #127, #194, ( #141 ) ) ;
#60 = CARTESIAN_POINT ( 'NONE',  ( 2.444036937190193601E-13, -7.347880794884121511E-15, 70.00000000000000000 ) ) ;
#61 = COORDINATED_UNIVERSAL_TIME_OFFSET ( 1, 0, .AHEAD. ) ;
#62 = AXIS2_PLACEMENT_3D ( 'NONE', #204, #221, #35 ) ;
#63 =( GEOMETRIC_REPRESENTATION_CONTEXT ( 3 ) GLOBAL_UNCERTAINTY_ASSIGNED_CONTEXT ( ( #54 ) ) GLOBAL_UNIT_ASSIGNED_CONTEXT ( ( #168, #41, #56 ) ) REPRESENTATION_CONTEXT ( 'NONE', 'WORKASPACE' ) );
#64 = PERSON_AND_ORGANIZATION_ROLE ( 'creator' ) ;
#65 = EDGE_LOOP ( 'NONE', ( #167 ) ) ;
#66 = PERSON_AND_ORGANIZATION_ROLE ( 'classification_officer' ) ;
#67 = COORDINATED_UNIVERSAL_TIME_OFFSET ( 1, 0, .AHEAD. ) ;
#68 = APPROVAL_PERSON_ORGANIZATION ( #7, #50, #157 ) ;
#69 = EDGE_LOOP ( 'NONE', ( #131 ) ) ;
#70 = FACE_OUTER_BOUND ( 'NONE', #115, .T. ) ;
#71 = FACE_BOUND ( 'NONE', #193, .T. ) ;
#72 = SECURITY_CLASSIFICATION ( '', '', #48 ) ;
#73 = APPROVAL ( #231, 'UNSPECIFIED' ) ;
#74 = DIRECTION ( 'NONE',  ( -3.491481338843133355E-15, -5.413680422546542168E-16, -1.000000000000000000 ) ) ;
#75 = CARTESIAN_POINT ( 'NONE',  ( 2.433562493173664138E-13, -7.316389877191761450E-15, 69.70000000000001705 ) ) ;
#76 = DIRECTION ( 'NONE',  ( -3.491481338843133355E-15, 1.049697256412017316E-16, -1.000000000000000000 ) ) ;
#77 = VERTEX_POINT ( 'NONE', #170 ) ;
#78 = AXIS2_PLACEMENT_3D ( 'NONE', #225, #31, #110 ) ;
#79 = PRODUCT_DEFINITION_FORMATION_WITH_SPECIFIED_SOURCE ( 'ANY', '', #172, .NOT_KNOWN. ) ;
#80 = CARTESIAN_POINT ( 'NONE',  ( -1.892735826383161356E-31, 1.459662432702592660, -5.421010862427522170E-17 ) ) ;
#81 = CALENDAR_DATE ( 2021, 26, 11 ) ;
#82 = APPROVAL_STATUS ( 'not_yet_approved' ) ;
#83 = EDGE_LOOP ( 'NONE', ( #101 ) ) ;
#84 = APPROVAL_ROLE ( '' ) ;
#85 = LOCAL_TIME ( 14, 1, 33.00000000000000000, #61 ) ;
#86 = FACE_OUTER_BOUND ( 'NONE', #69, .T. ) ;
#87 = DIRECTION ( 'NONE',  ( -3.491481338843133355E-15, 1.049697256412017316E-16, -1.000000000000000000 ) ) ;
#88 = CC_DESIGN_PERSON_AND_ORGANIZATION_ASSIGNMENT ( #178, #140, ( #79 ) ) ;
#89 = ORIENTED_EDGE ( 'NONE', *, *, #228, .T. ) ;
#90 = ORIENTED_EDGE ( 'NONE', *, *, #30, .F. ) ;
#91 = DIRECTION ( 'NONE',  ( 0.0000000000000000000, 1.000000000000000000, 0.0000000000000000000 ) ) ;
#92 = CC_DESIGN_DATE_AND_TIME_ASSIGNMENT ( #142, #121, ( #141 ) ) ;
#93 = CARTESIAN_POINT ( 'NONE',  ( 2.444036937190193601E-13, 1.199999999999990186, 70.00000000000000000 ) ) ;
#94 = CIRCLE ( 'NONE', #51, 1.499999999999997558 ) ;
#95 = DIRECTION ( 'NONE',  ( 1.890176416978166171E-30, -1.000000000000000000, 5.413680422546542168E-16 ) ) ;
#96 = CARTESIAN_POINT ( 'NONE',  ( 3.806552080923250063E-14, 1.603999999999998982, 10.90239847074339963 ) ) ;
#97 = AXIS2_PLACEMENT_3D ( 'NONE', #205, #154, #20 ) ;
#98 = DIRECTION ( 'NONE',  ( -3.664998382197393967E-31, -1.000000000000000000, -1.049697256412017316E-16 ) ) ;
#99 = COORDINATED_UNIVERSAL_TIME_OFFSET ( 1, 0, .AHEAD. ) ;
#100 = EDGE_LOOP ( 'NONE', ( #53 ) ) ;
#101 = ORIENTED_EDGE ( 'NONE', *, *, #234, .T. ) ;
#102 = PERSON_AND_ORGANIZATION ( #11, #39 ) ;
#103 = ORIENTED_EDGE ( 'NONE', *, *, #236, .F. ) ;
#104 = ORIENTED_EDGE ( 'NONE', *, *, #123, .F. ) ;
#105 = ADVANCED_FACE ( 'NONE', ( #71, #220 ), #8, .T. ) ;
#106 = ADVANCED_BREP_SHAPE_REPRESENTATION ( '321224', ( #24, #19, #97 ), #63 ) ;
#107 = AXIS2_PLACEMENT_3D ( 'NONE', #200, #87, #91 ) ;
#108 = CC_DESIGN_APPROVAL ( #50, ( #79 ) ) ;
#109 = DIRECTION ( 'NONE',  ( -3.491481338843133355E-15, 1.049697256412017316E-16, -1.000000000000000000 ) ) ;
#110 = DIRECTION ( 'NONE',  ( 3.664998382197393967E-31, 1.000000000000000000, 1.049697256412017316E-16 ) ) ;
#111 = CYLINDRICAL_SURFACE ( 'NONE', #62, 1.499999999999995337 ) ;
#112 = AXIS2_PLACEMENT_3D ( 'NONE', #12, #180, #113 ) ;
#113 = DIRECTION ( 'NONE',  ( -1.890176416978166171E-30, 1.000000000000000000, -5.413680422546542168E-16 ) ) ;
#114 = APPROVAL_PERSON_ORGANIZATION ( #4, #73, #118 ) ;
#115 = EDGE_LOOP ( 'NONE', ( #210 ) ) ;
#116 = EDGE_CURVE ( 'NONE', #208, #208, #119, .T. ) ;
#117 = VERTEX_POINT ( 'NONE', #93 ) ;
#118 = APPROVAL_ROLE ( '' ) ;
#119 = CIRCLE ( 'NONE', #216, 1.603999999999999870 ) ;
#120 = LOCAL_TIME ( 14, 1, 33.00000000000000000, #218 ) ;
#121 = DATE_TIME_ROLE ( 'creation_date' ) ;
#122 = EDGE_LOOP ( 'NONE', ( #139 ) ) ;
#123 = EDGE_CURVE ( 'NONE', #21, #21, #138, .T. ) ;
#124 = APPROVAL_DATE_TIME ( #195, #3 ) ;
#125 = EDGE_LOOP ( 'NONE', ( #238 ) ) ;
#126 = ORIENTED_EDGE ( 'NONE', *, *, #228, .F. ) ;
#127 = PERSON_AND_ORGANIZATION ( #11, #39 ) ;
#128 = CARTESIAN_POINT ( 'NONE',  ( 2.569745924405104221E-30, 3.984493070921067915E-31, 7.360044849205933693E-16 ) ) ;
#129 = AXIS2_PLACEMENT_3D ( 'NONE', #136, #191, #206 ) ;
#130 = EDGE_LOOP ( 'NONE', ( #175 ) ) ;
#131 = ORIENTED_EDGE ( 'NONE', *, *, #123, .T. ) ;
#132 = ORIENTED_EDGE ( 'NONE', *, *, #163, .T. ) ;
#133 = FACE_OUTER_BOUND ( 'NONE', #100, .T. ) ;
#134 = PRODUCT_RELATED_PRODUCT_CATEGORY ( 'detail', '', ( #172 ) ) ;
#135 = DIRECTION ( 'NONE',  ( -3.491481338843133355E-15, 1.049697256412017316E-16, -1.000000000000000000 ) ) ;
#136 = CARTESIAN_POINT ( 'NONE',  ( 3.806552080923250063E-14, 5.902210115986491165E-15, 10.90239847074340140 ) ) ;
#137 = CALENDAR_DATE ( 2021, 26, 11 ) ;
#138 = CIRCLE ( 'NONE', #209, 1.459662432702592660 ) ;
#139 = ORIENTED_EDGE ( 'NONE', *, *, #236, .T. ) ;
#140 = PERSON_AND_ORGANIZATION_ROLE ( 'design_supplier' ) ;
#141 = PRODUCT_DEFINITION ( 'UNKNOWN', '', #79, #202 ) ;
#142 = DATE_AND_TIME ( #81, #211 ) ;
#143 = APPROVAL_DATE_TIME ( #25, #50 ) ;
#144 = DIRECTION ( 'NONE',  ( -3.491481338843133355E-15, 1.049697256412017316E-16, -1.000000000000000000 ) ) ;
#145 = FACE_BOUND ( 'NONE', #83, .T. ) ;
#146 = ADVANCED_FACE ( 'NONE', ( #145, #197 ), #152, .T. ) ;
#147 = AXIS2_PLACEMENT_3D ( 'NONE', #75, #1, #49 ) ;
#148 = DIRECTION ( 'NONE',  ( 3.491481338843133355E-15, 5.413680422546542168E-16, 1.000000000000000000 ) ) ;
#149 = CARTESIAN_POINT ( 'NONE',  ( 3.806552080923249432E-14, -1.144421776304991930E-15, 10.90239847074339963 ) ) ;
#150 = CC_DESIGN_PERSON_AND_ORGANIZATION_ASSIGNMENT ( #169, #230, ( #172 ) ) ;
#151 = DIRECTION ( 'NONE',  ( 0.0000000000000000000, 1.000000000000000000, 0.0000000000000000000 ) ) ;
#152 = CONICAL_SURFACE ( 'NONE', #233, 1.603999999999999870, 0.5235987755982931535 ) ;
#153 = APPLICATION_PROTOCOL_DEFINITION ( 'international standard', 'config_control_design', 1994, #182 ) ;
#154 = DIRECTION ( 'NONE',  ( 0.0000000000000000000, 0.0000000000000000000, 1.000000000000000000 ) ) ;
#155 = CARTESIAN_POINT ( 'NONE',  ( 2.433562493173664138E-13, -7.316389877191761450E-15, 69.70000000000001705 ) ) ;
#156 = CALENDAR_DATE ( 2021, 26, 11 ) ;
#157 = APPROVAL_ROLE ( '' ) ;
#158 = EDGE_LOOP ( 'NONE', ( #126 ) ) ;
#159 = AXIS2_PLACEMENT_3D ( 'NONE', #188, #135, #37 ) ;
#160 = DATE_AND_TIME ( #192, #120 ) ;
#161 = PERSON_AND_ORGANIZATION ( #11, #39 ) ;
#162 = CLOSED_SHELL ( 'NONE', ( #222, #105, #196, #146, #23 ) ) ;
#163 = EDGE_CURVE ( 'NONE', #117, #117, #203, .T. ) ;
#164 = DIRECTION ( 'NONE',  ( -1.890176416978166171E-30, 1.000000000000000000, -5.413680422546542168E-16 ) ) ;
#165 = FACE_OUTER_BOUND ( 'NONE', #215, .T. ) ;
#166 = FACE_OUTER_BOUND ( 'NONE', #27, .T. ) ;
#167 = ORIENTED_EDGE ( 'NONE', *, *, #234, .F. ) ;
#168 =( LENGTH_UNIT ( ) NAMED_UNIT ( * ) SI_UNIT ( .MILLI., .METRE. ) );
#169 = PERSON_AND_ORGANIZATION ( #11, #39 ) ;
#170 = CARTESIAN_POINT ( 'NONE',  ( 3.869445280877825814E-14, 1.499999999999991562, 11.08253175473057794 ) ) ;
#171 = VERTEX_POINT ( 'NONE', #207 ) ;
#172 = PRODUCT ( '321224', '321224', '', ( #229 ) ) ;
#173 = APPROVAL_STATUS ( 'not_yet_approved' ) ;
#174 = ADVANCED_FACE ( 'NONE', ( #86 ), #224, .T. ) ;
#175 = ORIENTED_EDGE ( 'NONE', *, *, #163, .F. ) ;
#176 = AXIS2_PLACEMENT_3D ( 'NONE', #55, #186, #164 ) ;
#177 = LOCAL_TIME ( 14, 1, 33.00000000000000000, #99 ) ;
#178 = PERSON_AND_ORGANIZATION ( #11, #39 ) ;
#179 = LOCAL_TIME ( 14, 1, 33.00000000000000000, #6 ) ;
#180 = DIRECTION ( 'NONE',  ( -3.491481338843133355E-15, -5.413680422546542168E-16, -1.000000000000000000 ) ) ;
#181 = DIRECTION ( 'NONE',  ( 1.890176416978166171E-30, -1.000000000000000000, 5.413680422546542168E-16 ) ) ;
#182 = APPLICATION_CONTEXT ( 'configuration controlled 3d designs of mechanical parts and assemblies' ) ;
#183 = FACE_BOUND ( 'NONE', #241, .T. ) ;
#184 = CIRCLE ( 'NONE', #129, 1.603999999999992987 ) ;
#185 = APPROVAL_PERSON_ORGANIZATION ( #214, #3, #84 ) ;
#186 = DIRECTION ( 'NONE',  ( -3.491481338843133355E-15, -5.413680422546542168E-16, -1.000000000000000000 ) ) ;
#187 = PLANE ( 'NONE',  #17 ) ;
#188 = CARTESIAN_POINT ( 'NONE',  ( 3.869445280877825814E-14, -1.163330317703974832E-15, 11.08253175473057794 ) ) ;
#189 = ADVANCED_FACE ( 'NONE', ( #165, #166 ), #15, .T. ) ;
#190 = CARTESIAN_POINT ( 'NONE',  ( 2.433562493173664138E-13, 1.499999999999990230, 69.70000000000001705 ) ) ;
#191 = DIRECTION ( 'NONE',  ( -3.491481338843133355E-15, -5.413680422546542168E-16, -1.000000000000000000 ) ) ;
#192 = CALENDAR_DATE ( 2021, 26, 11 ) ;
#193 = EDGE_LOOP ( 'NONE', ( #132 ) ) ;
#194 = PERSON_AND_ORGANIZATION_ROLE ( 'creator' ) ;
#195 = DATE_AND_TIME ( #137, #179 ) ;
#196 = ADVANCED_FACE ( 'NONE', ( #223, #32 ), #111, .T. ) ;
#197 = FACE_OUTER_BOUND ( 'NONE', #125, .T. ) ;
#198 = AXIS2_PLACEMENT_3D ( 'NONE', #60, #16, #98 ) ;
#199 = PLANE ( 'NONE',  #78 ) ;
#200 = CARTESIAN_POINT ( 'NONE',  ( 2.444036937190193601E-13, -7.347880794884121511E-15, 70.00000000000000000 ) ) ;
#201 = DIRECTION ( 'NONE',  ( -3.491481338843133355E-15, -5.413680422546542168E-16, -1.000000000000000000 ) ) ;
#202 = DESIGN_CONTEXT ( 'detailed design', #5, 'design' ) ;
#203 = CIRCLE ( 'NONE', #107, 1.199999999999997513 ) ;
#204 = CARTESIAN_POINT ( 'NONE',  ( 0.0000000000000000000, 0.0000000000000000000, 0.0000000000000000000 ) ) ;
#205 = CARTESIAN_POINT ( 'NONE',  ( 0.0000000000000000000, 0.0000000000000000000, 0.0000000000000000000 ) ) ;
#206 = DIRECTION ( 'NONE',  ( 0.0000000000000000000, 1.000000000000000000, -1.081498426419460545E-15 ) ) ;
#207 = CARTESIAN_POINT ( 'NONE',  ( 8.728703347107831416E-16, 1.603999999999998982, 0.2499999999999999445 ) ) ;
#208 = VERTEX_POINT ( 'NONE', #42 ) ;
#209 = AXIS2_PLACEMENT_3D ( 'NONE', #128, #74, #10 ) ;
#210 = ORIENTED_EDGE ( 'NONE', *, *, #30, .T. ) ;
#211 = LOCAL_TIME ( 14, 1, 33.00000000000000000, #67 ) ;
#212 = ADVANCED_FACE ( 'NONE', ( #70, #183 ), #237, .T. ) ;
#213 = CALENDAR_DATE ( 2021, 26, 11 ) ;
#214 = PERSON_AND_ORGANIZATION ( #11, #39 ) ;
#215 = EDGE_LOOP ( 'NONE', ( #89 ) ) ;
#216 = AXIS2_PLACEMENT_3D ( 'NONE', #149, #144, #9 ) ;
#217 = CC_DESIGN_SECURITY_CLASSIFICATION ( #72, ( #79 ) ) ;
#218 = COORDINATED_UNIVERSAL_TIME_OFFSET ( 1, 0, .AHEAD. ) ;
#219 = CC_DESIGN_PERSON_AND_ORGANIZATION_ASSIGNMENT ( #161, #66, ( #72 ) ) ;
#220 = FACE_OUTER_BOUND ( 'NONE', #26, .T. ) ;
#221 = DIRECTION ( 'NONE',  ( -3.491481338843133355E-15, 1.049697256412017316E-16, -1.000000000000000000 ) ) ;
#222 = ADVANCED_FACE ( 'NONE', ( #18 ), #36, .T. ) ;
#223 = FACE_OUTER_BOUND ( 'NONE', #122, .T. ) ;
#224 = PLANE ( 'NONE',  #112 ) ;
#225 = CARTESIAN_POINT ( 'NONE',  ( 3.806552080923250063E-14, 1.603999999999998982, 10.90239847074340140 ) ) ;
#226 = AXIS2_PLACEMENT_3D ( 'NONE', #242, #201, #52 ) ;
#227 = DIRECTION ( 'NONE',  ( 0.0000000000000000000, 1.000000000000000000, 0.0000000000000000000 ) ) ;
#228 = EDGE_CURVE ( 'NONE', #2, #2, #184, .T. ) ;
#229 = MECHANICAL_CONTEXT ( 'NONE', #182, 'mechanical' ) ;
#230 = PERSON_AND_ORGANIZATION_ROLE ( 'design_owner' ) ;
#231 = APPROVAL_STATUS ( 'not_yet_approved' ) ;
#232 = DATE_AND_TIME ( #213, #177 ) ;
#233 = AXIS2_PLACEMENT_3D ( 'NONE', #28, #109, #151 ) ;
#234 = EDGE_CURVE ( 'NONE', #77, #77, #22, .T. ) ;
#235 = APPROVAL_DATE_TIME ( #160, #73 ) ;
#236 = EDGE_CURVE ( 'NONE', #40, #40, #94, .T. ) ;
#237 = CONICAL_SURFACE ( 'NONE', #58, 1.459662432702592660, 0.5235987755982971503 ) ;
#238 = ORIENTED_EDGE ( 'NONE', *, *, #116, .F. ) ;
#239 = FACE_OUTER_BOUND ( 'NONE', #158, .T. ) ;
#240 = CC_DESIGN_PERSON_AND_ORGANIZATION_ASSIGNMENT ( #102, #64, ( #79 ) ) ;
#241 = EDGE_LOOP ( 'NONE', ( #104 ) ) ;
#242 = CARTESIAN_POINT ( 'NONE',  ( 8.728703347107862970E-16, 1.353420105636639979E-16, 0.2500000000000008327 ) ) ;
#243 = DIRECTION ( 'NONE',  ( 3.491481338843133355E-15, 5.413680422546542168E-16, 1.000000000000000000 ) ) ;
ENDSEC;
END-ISO-10303-21;
