ISO-10303-21;
HEADER;
FILE_DESCRIPTION (( 'STEP AP203' ),
    '1' );
FILE_NAME ('321223.step',
    '2021-11-26T13:01:32',
    ( '' ),
    ( '' ),
    'SwSTEP 2.0',
    'SolidWorks 2019',
    '' );
FILE_SCHEMA (( 'CONFIG_CONTROL_DESIGN' ));
ENDSEC;

DATA;
#1 = SECURITY_CLASSIFICATION ( '', '', #15 ) ;
#2 = CARTESIAN_POINT ( 'NONE',  ( 0.0000000000000000000, 0.0000000000000000000, 0.0000000000000000000 ) ) ;
#3 = DIRECTION ( 'NONE',  ( -3.491481338843133355E-15, -5.407439474327758039E-16, -1.000000000000000000 ) ) ;
#4 = FACE_OUTER_BOUND ( 'NONE', #238, .T. ) ;
#5 = CC_DESIGN_APPROVAL ( #186, ( #30 ) ) ;
#6 = DIRECTION ( 'NONE',  ( -3.491481338843133355E-15, 1.049697256412017316E-16, -1.000000000000000000 ) ) ;
#7 = DIRECTION ( 'NONE',  ( 0.0000000000000000000, 1.000000000000000000, 0.0000000000000000000 ) ) ;
#8 = CC_DESIGN_PERSON_AND_ORGANIZATION_ASSIGNMENT ( #208, #56, ( #30 ) ) ;
#9 = LOCAL_TIME ( 14, 1, 32.00000000000000000, #235 ) ;
#10 = PERSON_AND_ORGANIZATION ( #87, #60 ) ;
#11 = DIRECTION ( 'NONE',  ( 3.664998382197393967E-31, 1.000000000000000000, 1.049697256412017316E-16 ) ) ;
#12 = CLOSED_SHELL ( 'NONE', ( #204, #159, #138, #90 ) ) ;
#13 = APPROVAL_ROLE ( '' ) ;
#14 = EDGE_LOOP ( 'NONE', ( #59 ) ) ;
#15 = SECURITY_CLASSIFICATION_LEVEL ( 'unclassified' ) ;
#16 = ORIENTED_EDGE ( 'NONE', *, *, #31, .F. ) ;
#17 = APPROVAL_PERSON_ORGANIZATION ( #104, #186, #13 ) ;
#18 = PRODUCT ( '321223', '321223', '', ( #202 ) ) ;
#19 = DESIGN_CONTEXT ( 'detailed design', #216, 'design' ) ;
#20 = EDGE_CURVE ( 'NONE', #218, #218, #173, .T. ) ;
#21 = DIRECTION ( 'NONE',  ( -3.491481338843133355E-15, -5.407439474327758039E-16, -1.000000000000000000 ) ) ;
#22 = AXIS2_PLACEMENT_3D ( 'NONE', #2, #6, #227 ) ;
#23 = EDGE_CURVE ( 'NONE', #29, #29, #35, .T. ) ;
#24 = CARTESIAN_POINT ( 'NONE',  ( -1.467836237859449454E-30, 1.454662432702592545, -4.204050073330198138E-16 ) ) ;
#25 = CYLINDRICAL_SURFACE ( 'NONE', #22, 1.499999999999995337 ) ;
#26 = DIRECTION ( 'NONE',  ( 0.0000000000000000000, 1.000000000000000000, 0.0000000000000000000 ) ) ;
#27 = DIRECTION ( 'NONE',  ( -1.887997401553908821E-30, 1.000000000000000000, -5.407439474327758039E-16 ) ) ;
#28 = CARTESIAN_POINT ( 'NONE',  ( 8.728703347107831416E-16, 1.598999999999998645, 0.2499999999999999445 ) ) ;
#29 = VERTEX_POINT ( 'NONE', #144 ) ;
#30 = PRODUCT_DEFINITION_FORMATION_WITH_SPECIFIED_SOURCE ( 'ANY', '', #18, .NOT_KNOWN. ) ;
#31 = EDGE_CURVE ( 'NONE', #84, #84, #181, .T. ) ;
#32 = CARTESIAN_POINT ( 'NONE',  ( 2.444036937190193601E-13, 1.199999999999990186, 70.00000000000000000 ) ) ;
#33 = CARTESIAN_POINT ( 'NONE',  ( 3.809575792459527568E-14, 1.598999999999998645, 10.91105872478124716 ) ) ;
#34 = CARTESIAN_POINT ( 'NONE',  ( 0.0000000000000000000, 0.0000000000000000000, 0.0000000000000000000 ) ) ;
#35 = CIRCLE ( 'NONE', #152, 1.499999999999997558 ) ;
#36 = EDGE_CURVE ( 'NONE', #103, #103, #49, .T. ) ;
#37 = EDGE_LOOP ( 'NONE', ( #41 ) ) ;
#38 = CALENDAR_DATE ( 2021, 26, 11 ) ;
#39 = AXIS2_PLACEMENT_3D ( 'NONE', #156, #114, #193 ) ;
#40 = EDGE_LOOP ( 'NONE', ( #16 ) ) ;
#41 = ORIENTED_EDGE ( 'NONE', *, *, #20, .F. ) ;
#42 = CARTESIAN_POINT ( 'NONE',  ( 2.557125310442266681E-30, 3.960353501150240825E-31, 7.323897974174891842E-16 ) ) ;
#43 = DIRECTION ( 'NONE',  ( -3.491481338843133355E-15, 1.049697256412017316E-16, -1.000000000000000000 ) ) ;
#44 = AXIS2_PLACEMENT_3D ( 'NONE', #96, #77, #26 ) ;
#45 = DIRECTION ( 'NONE',  ( 0.0000000000000000000, 1.000000000000000000, 0.0000000000000000000 ) ) ;
#46 = FACE_OUTER_BOUND ( 'NONE', #91, .T. ) ;
#47 = EDGE_CURVE ( 'NONE', #231, #231, #199, .T. ) ;
#48 = DIRECTION ( 'NONE',  ( 1.887997401553908821E-30, -1.000000000000000000, 5.407439474327758039E-16 ) ) ;
#49 = CIRCLE ( 'NONE', #101, 1.454662432702592545 ) ;
#50 = FACE_OUTER_BOUND ( 'NONE', #188, .T. ) ;
#51 = PERSON_AND_ORGANIZATION_ROLE ( 'design_owner' ) ;
#52 = APPROVAL ( #94, 'UNSPECIFIED' ) ;
#53 = PLANE ( 'NONE',  #222 ) ;
#54 = PERSON_AND_ORGANIZATION_ROLE ( 'creator' ) ;
#55 = DATE_TIME_ROLE ( 'creation_date' ) ;
#56 = PERSON_AND_ORGANIZATION_ROLE ( 'creator' ) ;
#57 = ORIENTED_EDGE ( 'NONE', *, *, #23, .F. ) ;
#58 = DATE_AND_TIME ( #127, #146 ) ;
#59 = ORIENTED_EDGE ( 'NONE', *, *, #143, .F. ) ;
#60 = ORGANIZATION ( 'UNSPECIFIED', 'UNSPECIFIED', '' ) ;
#61 = DIRECTION ( 'NONE',  ( -1.887997401553908821E-30, 1.000000000000000000, -5.407439474327758039E-16 ) ) ;
#62 = PLANE ( 'NONE',  #232 ) ;
#63 = DIRECTION ( 'NONE',  ( -3.491481338843133355E-15, 1.049697256412017316E-16, -1.000000000000000000 ) ) ;
#64 = DIRECTION ( 'NONE',  ( -3.491481338843133355E-15, 1.049697256412017316E-16, -1.000000000000000000 ) ) ;
#65 = DIRECTION ( 'NONE',  ( 0.0000000000000000000, 1.000000000000000000, 0.0000000000000000000 ) ) ;
#66 = AXIS2_PLACEMENT_3D ( 'NONE', #80, #98, #65 ) ;
#67 = PERSON_AND_ORGANIZATION ( #87, #60 ) ;
#68 = ADVANCED_FACE ( 'NONE', ( #116 ), #100, .T. ) ;
#69 = CALENDAR_DATE ( 2021, 26, 11 ) ;
#70 = DATE_AND_TIME ( #69, #195 ) ;
#71 = CARTESIAN_POINT ( 'NONE',  ( 3.869445280877825814E-14, 1.499999999999991562, 11.08253175473057794 ) ) ;
#72 = ADVANCED_FACE ( 'NONE', ( #228, #137 ), #75, .T. ) ;
#73 = CALENDAR_DATE ( 2021, 26, 11 ) ;
#74 = ORIENTED_EDGE ( 'NONE', *, *, #107, .T. ) ;
#75 = CONICAL_SURFACE ( 'NONE', #219, 1.598999999999999755, 0.5235987755982982605 ) ;
#76 = DIRECTION ( 'NONE',  ( -3.491481338843133355E-15, -5.407439474327758039E-16, -1.000000000000000000 ) ) ;
#77 = DIRECTION ( 'NONE',  ( -3.491481338843133355E-15, -5.407439474327758039E-16, -1.000000000000000000 ) ) ;
#78 = CARTESIAN_POINT ( 'NONE',  ( 2.444036937190193601E-13, -7.347880794884121511E-15, 70.00000000000000000 ) ) ;
#79 =( GEOMETRIC_REPRESENTATION_CONTEXT ( 3 ) GLOBAL_UNCERTAINTY_ASSIGNED_CONTEXT ( ( #153 ) ) GLOBAL_UNIT_ASSIGNED_CONTEXT ( ( #165, #124, #123 ) ) REPRESENTATION_CONTEXT ( 'NONE', 'WORKASPACE' ) );
#80 = CARTESIAN_POINT ( 'NONE',  ( 3.869445280877825814E-14, -1.163330317703974832E-15, 11.08253175473057794 ) ) ;
#81 = DIRECTION ( 'NONE',  ( -3.491481338843133355E-15, -5.407439474327758039E-16, -1.000000000000000000 ) ) ;
#82 = AXIS2_PLACEMENT_3D ( 'NONE', #194, #21, #158 ) ;
#83 = CARTESIAN_POINT ( 'NONE',  ( -1.892735826383158072E-31, 1.454662432702592545, -5.421010862427522170E-17 ) ) ;
#84 = VERTEX_POINT ( 'NONE', #71 ) ;
#85 = COORDINATED_UNIVERSAL_TIME_OFFSET ( 1, 0, .AHEAD. ) ;
#86 = APPLICATION_CONTEXT ( 'configuration controlled 3d designs of mechanical parts and assemblies' ) ;
#87 = PERSON ( 'UNSPECIFIED', 'UNSPECIFIED', 'UNSPECIFIED', ('UNSPECIFIED'), ('UNSPECIFIED'), ('UNSPECIFIED') ) ;
#88 = PRODUCT_DEFINITION_SHAPE ( 'NONE', 'NONE',  #113 ) ;
#89 = DATE_AND_TIME ( #38, #9 ) ;
#90 = ADVANCED_FACE ( 'NONE', ( #192 ), #62, .T. ) ;
#91 = EDGE_LOOP ( 'NONE', ( #205 ) ) ;
#92 = PERSON_AND_ORGANIZATION ( #87, #60 ) ;
#93 = EDGE_LOOP ( 'NONE', ( #128 ) ) ;
#94 = APPROVAL_STATUS ( 'not_yet_approved' ) ;
#95 = MANIFOLD_SOLID_BREP ( 'Corps-Déplacer/Copier1[2]', #12 ) ;
#96 = CARTESIAN_POINT ( 'NONE',  ( 3.809575792459527568E-14, 5.900088965509040288E-15, 10.91105872478124716 ) ) ;
#97 = MANIFOLD_SOLID_BREP ( 'Corps-Déplacer/Copier1[1]', #111 ) ;
#98 = DIRECTION ( 'NONE',  ( -3.491481338843133355E-15, 1.049697256412017316E-16, -1.000000000000000000 ) ) ;
#99 = CARTESIAN_POINT ( 'NONE',  ( 0.0000000000000000000, 0.0000000000000000000, 0.0000000000000000000 ) ) ;
#100 = PLANE ( 'NONE',  #185 ) ;
#101 = AXIS2_PLACEMENT_3D ( 'NONE', #102, #3, #27 ) ;
#102 = CARTESIAN_POINT ( 'NONE',  ( 2.557125310442266681E-30, 3.960353501150240825E-31, 7.323897974174891842E-16 ) ) ;
#103 = VERTEX_POINT ( 'NONE', #83 ) ;
#104 = PERSON_AND_ORGANIZATION ( #87, #60 ) ;
#105 = CC_DESIGN_APPROVAL ( #190, ( #113 ) ) ;
#106 = EDGE_LOOP ( 'NONE', ( #189 ) ) ;
#107 = EDGE_CURVE ( 'NONE', #164, #164, #215, .T. ) ;
#108 = PERSON_AND_ORGANIZATION_ROLE ( 'design_supplier' ) ;
#109 = PERSON_AND_ORGANIZATION ( #87, #60 ) ;
#110 = ORIENTED_EDGE ( 'NONE', *, *, #47, .F. ) ;
#111 = CLOSED_SHELL ( 'NONE', ( #68, #212, #154, #72, #230 ) ) ;
#112 = ORIENTED_EDGE ( 'NONE', *, *, #47, .T. ) ;
#113 = PRODUCT_DEFINITION ( 'UNKNOWN', '', #30, #19 ) ;
#114 = DIRECTION ( 'NONE',  ( -3.491481338843133355E-15, 1.049697256412017316E-16, -1.000000000000000000 ) ) ;
#115 = AXIS2_PLACEMENT_3D ( 'NONE', #99, #81, #214 ) ;
#116 = FACE_OUTER_BOUND ( 'NONE', #14, .T. ) ;
#117 = CARTESIAN_POINT ( 'NONE',  ( 2.433562493173664138E-13, -7.316389877191761450E-15, 69.70000000000001705 ) ) ;
#118 = CARTESIAN_POINT ( 'NONE',  ( 3.809575792459528199E-14, 5.900088965509041077E-15, 10.91105872478124894 ) ) ;
#119 = FACE_BOUND ( 'NONE', #106, .T. ) ;
#120 = LOCAL_TIME ( 14, 1, 32.00000000000000000, #233 ) ;
#121 = APPROVAL_ROLE ( '' ) ;
#122 = CARTESIAN_POINT ( 'NONE',  ( 3.809575792459527568E-14, 1.598999999999998645, 10.91105872478124716 ) ) ;
#123 =( NAMED_UNIT ( * ) SI_UNIT ( $, .STERADIAN. ) SOLID_ANGLE_UNIT ( ) );
#124 =( NAMED_UNIT ( * ) PLANE_ANGLE_UNIT ( ) SI_UNIT ( $, .RADIAN. ) );
#125 = CIRCLE ( 'NONE', #39, 1.199999999999997513 ) ;
#126 = CC_DESIGN_APPROVAL ( #52, ( #1 ) ) ;
#127 = CALENDAR_DATE ( 2021, 26, 11 ) ;
#128 = ORIENTED_EDGE ( 'NONE', *, *, #31, .T. ) ;
#129 = ORIENTED_EDGE ( 'NONE', *, *, #36, .T. ) ;
#130 = EDGE_LOOP ( 'NONE', ( #129 ) ) ;
#131 = APPROVAL_ROLE ( '' ) ;
#132 = CC_DESIGN_DATE_AND_TIME_ASSIGNMENT ( #221, #55, ( #113 ) ) ;
#133 = DIRECTION ( 'NONE',  ( 3.491481338843133355E-15, 5.407439474327758039E-16, 1.000000000000000000 ) ) ;
#134 = FACE_OUTER_BOUND ( 'NONE', #225, .T. ) ;
#135 = FACE_OUTER_BOUND ( 'NONE', #172, .T. ) ;
#136 = ADVANCED_BREP_SHAPE_REPRESENTATION ( '321223', ( #97, #95, #207 ), #79 ) ;
#137 = FACE_OUTER_BOUND ( 'NONE', #37, .T. ) ;
#138 = ADVANCED_FACE ( 'NONE', ( #135, #139 ), #145, .T. ) ;
#139 = FACE_BOUND ( 'NONE', #241, .T. ) ;
#140 = AXIS2_PLACEMENT_3D ( 'NONE', #42, #133, #175 ) ;
#141 = APPROVAL_PERSON_ORGANIZATION ( #109, #52, #131 ) ;
#142 = APPROVAL_STATUS ( 'not_yet_approved' ) ;
#143 = EDGE_CURVE ( 'NONE', #179, #179, #125, .T. ) ;
#144 = CARTESIAN_POINT ( 'NONE',  ( 2.433562493173664138E-13, 1.499999999999990230, 69.70000000000001705 ) ) ;
#145 = CONICAL_SURFACE ( 'NONE', #140, 1.454662432702592545, 0.5235987755982971503 ) ;
#146 = LOCAL_TIME ( 14, 1, 32.00000000000000000, #151 ) ;
#147 = CALENDAR_DATE ( 2021, 26, 11 ) ;
#148 = PERSON_AND_ORGANIZATION_ROLE ( 'classification_officer' ) ;
#149 = CC_DESIGN_PERSON_AND_ORGANIZATION_ASSIGNMENT ( #220, #54, ( #113 ) ) ;
#150 = EDGE_LOOP ( 'NONE', ( #57 ) ) ;
#151 = COORDINATED_UNIVERSAL_TIME_OFFSET ( 1, 0, .AHEAD. ) ;
#152 = AXIS2_PLACEMENT_3D ( 'NONE', #117, #63, #178 ) ;
#153 = UNCERTAINTY_MEASURE_WITH_UNIT (LENGTH_MEASURE( 1.000000000000000082E-05 ), #165, 'distance_accuracy_value', 'NONE');
#154 = ADVANCED_FACE ( 'NONE', ( #4, #157 ), #25, .T. ) ;
#155 = DIRECTION ( 'NONE',  ( -3.491481338843133355E-15, 1.049697256412017316E-16, -1.000000000000000000 ) ) ;
#156 = CARTESIAN_POINT ( 'NONE',  ( 2.444036937190193601E-13, -7.347880794884121511E-15, 70.00000000000000000 ) ) ;
#157 = FACE_OUTER_BOUND ( 'NONE', #40, .T. ) ;
#158 = DIRECTION ( 'NONE',  ( -1.927134403389356068E-30, 1.000000000000000000, -5.424401113123229445E-16 ) ) ;
#159 = ADVANCED_FACE ( 'NONE', ( #134, #213 ), #211, .T. ) ;
#160 = FACE_OUTER_BOUND ( 'NONE', #150, .T. ) ;
#161 = APPLICATION_PROTOCOL_DEFINITION ( 'international standard', 'config_control_design', 1994, #86 ) ;
#162 = CC_DESIGN_PERSON_AND_ORGANIZATION_ASSIGNMENT ( #92, #148, ( #1 ) ) ;
#163 = APPROVAL_DATE_TIME ( #70, #190 ) ;
#164 = VERTEX_POINT ( 'NONE', #122 ) ;
#165 =( LENGTH_UNIT ( ) NAMED_UNIT ( * ) SI_UNIT ( .MILLI., .METRE. ) );
#166 = EDGE_LOOP ( 'NONE', ( #110 ) ) ;
#167 = AXIS2_PLACEMENT_3D ( 'NONE', #229, #155, #234 ) ;
#168 = APPROVAL_DATE_TIME ( #171, #186 ) ;
#169 = ORIENTED_EDGE ( 'NONE', *, *, #23, .T. ) ;
#170 = PERSON_AND_ORGANIZATION ( #87, #60 ) ;
#171 = DATE_AND_TIME ( #73, #224 ) ;
#172 = EDGE_LOOP ( 'NONE', ( #112 ) ) ;
#173 = CIRCLE ( 'NONE', #237, 1.598999999999999755 ) ;
#174 = DIRECTION ( 'NONE',  ( -3.664998382197393967E-31, -1.000000000000000000, -1.049697256412017316E-16 ) ) ;
#175 = DIRECTION ( 'NONE',  ( 1.887997401553908471E-30, -1.000000000000000000, 5.407439474327758039E-16 ) ) ;
#176 = PLANE ( 'NONE',  #191 ) ;
#177 = DIRECTION ( 'NONE',  ( 3.491481338843133355E-15, 5.407439474327758039E-16, 1.000000000000000000 ) ) ;
#178 = DIRECTION ( 'NONE',  ( 0.0000000000000000000, 1.000000000000000000, 0.0000000000000000000 ) ) ;
#179 = VERTEX_POINT ( 'NONE', #32 ) ;
#180 = PRODUCT_RELATED_PRODUCT_CATEGORY ( 'detail', '', ( #18 ) ) ;
#181 = CIRCLE ( 'NONE', #66, 1.499999999999992673 ) ;
#182 = DIRECTION ( 'NONE',  ( 0.0000000000000000000, 0.0000000000000000000, 1.000000000000000000 ) ) ;
#183 = APPLICATION_PROTOCOL_DEFINITION ( 'international standard', 'config_control_design', 1994, #216 ) ;
#184 = APPROVAL_STATUS ( 'not_yet_approved' ) ;
#185 = AXIS2_PLACEMENT_3D ( 'NONE', #78, #226, #174 ) ;
#186 = APPROVAL ( #184, 'UNSPECIFIED' ) ;
#187 = APPROVAL_DATE_TIME ( #89, #52 ) ;
#188 = EDGE_LOOP ( 'NONE', ( #242 ) ) ;
#189 = ORIENTED_EDGE ( 'NONE', *, *, #143, .T. ) ;
#190 = APPROVAL ( #142, 'UNSPECIFIED' ) ;
#191 = AXIS2_PLACEMENT_3D ( 'NONE', #118, #177, #48 ) ;
#192 = FACE_OUTER_BOUND ( 'NONE', #130, .T. ) ;
#193 = DIRECTION ( 'NONE',  ( 0.0000000000000000000, 1.000000000000000000, 0.0000000000000000000 ) ) ;
#194 = CARTESIAN_POINT ( 'NONE',  ( 8.728703347107862970E-16, 1.351859868581943947E-16, 0.2500000000000008327 ) ) ;
#195 = LOCAL_TIME ( 14, 1, 32.00000000000000000, #198 ) ;
#196 = CARTESIAN_POINT ( 'NONE',  ( 3.809575792459527568E-14, -1.145330840795327851E-15, 10.91105872478124716 ) ) ;
#197 = DIRECTION ( 'NONE',  ( -3.491481338843133355E-15, 1.049697256412017316E-16, -1.000000000000000000 ) ) ;
#198 = COORDINATED_UNIVERSAL_TIME_OFFSET ( 1, 0, .AHEAD. ) ;
#199 = CIRCLE ( 'NONE', #82, 1.598999999999998423 ) ;
#200 = CARTESIAN_POINT ( 'NONE',  ( 3.809575792459528199E-14, 1.598999999999998645, 10.91105872478124894 ) ) ;
#201 = CC_DESIGN_SECURITY_CLASSIFICATION ( #1, ( #30 ) ) ;
#202 = MECHANICAL_CONTEXT ( 'NONE', #86, 'mechanical' ) ;
#203 = DIRECTION ( 'NONE',  ( 1.000000000000000000, 0.0000000000000000000, 0.0000000000000000000 ) ) ;
#204 = ADVANCED_FACE ( 'NONE', ( #46 ), #176, .T. ) ;
#205 = ORIENTED_EDGE ( 'NONE', *, *, #107, .F. ) ;
#206 = ORIENTED_EDGE ( 'NONE', *, *, #36, .F. ) ;
#207 = AXIS2_PLACEMENT_3D ( 'NONE', #34, #182, #203 ) ;
#208 = PERSON_AND_ORGANIZATION ( #87, #60 ) ;
#209 = CARTESIAN_POINT ( 'NONE',  ( 3.809575792459527568E-14, -1.145330840795327851E-15, 10.91105872478124716 ) ) ;
#210 = CONICAL_SURFACE ( 'NONE', #167, 1.499999999999997558, 0.7853981633974573828 ) ;
#211 = CYLINDRICAL_SURFACE ( 'NONE', #115, 1.598999999999995536 ) ;
#212 = ADVANCED_FACE ( 'NONE', ( #119, #160 ), #210, .T. ) ;
#213 = FACE_OUTER_BOUND ( 'NONE', #166, .T. ) ;
#214 = DIRECTION ( 'NONE',  ( -1.887997401553908821E-30, 1.000000000000000000, -5.407439474327759025E-16 ) ) ;
#215 = CIRCLE ( 'NONE', #44, 1.598999999999992871 ) ;
#216 = APPLICATION_CONTEXT ( 'configuration controlled 3d designs of mechanical parts and assemblies' ) ;
#217 = CC_DESIGN_PERSON_AND_ORGANIZATION_ASSIGNMENT ( #10, #51, ( #18 ) ) ;
#218 = VERTEX_POINT ( 'NONE', #33 ) ;
#219 = AXIS2_PLACEMENT_3D ( 'NONE', #196, #64, #7 ) ;
#220 = PERSON_AND_ORGANIZATION ( #87, #60 ) ;
#221 = DATE_AND_TIME ( #147, #120 ) ;
#222 = AXIS2_PLACEMENT_3D ( 'NONE', #200, #197, #11 ) ;
#223 = CC_DESIGN_DATE_AND_TIME_ASSIGNMENT ( #58, #240, ( #1 ) ) ;
#224 = LOCAL_TIME ( 14, 1, 32.00000000000000000, #85 ) ;
#225 = EDGE_LOOP ( 'NONE', ( #74 ) ) ;
#226 = DIRECTION ( 'NONE',  ( 3.491481338843133355E-15, -1.049697256412017316E-16, 1.000000000000000000 ) ) ;
#227 = DIRECTION ( 'NONE',  ( 3.664998382197393967E-31, 1.000000000000000000, 1.049697256412017316E-16 ) ) ;
#228 = FACE_BOUND ( 'NONE', #93, .T. ) ;
#229 = CARTESIAN_POINT ( 'NONE',  ( 2.433562493173664138E-13, -7.316389877191761450E-15, 69.70000000000001705 ) ) ;
#230 = ADVANCED_FACE ( 'NONE', ( #50 ), #53, .T. ) ;
#231 = VERTEX_POINT ( 'NONE', #28 ) ;
#232 = AXIS2_PLACEMENT_3D ( 'NONE', #24, #76, #61 ) ;
#233 = COORDINATED_UNIVERSAL_TIME_OFFSET ( 1, 0, .AHEAD. ) ;
#234 = DIRECTION ( 'NONE',  ( 0.0000000000000000000, 1.000000000000000000, 0.0000000000000000000 ) ) ;
#235 = COORDINATED_UNIVERSAL_TIME_OFFSET ( 1, 0, .AHEAD. ) ;
#236 = SHAPE_DEFINITION_REPRESENTATION ( #88, #136 ) ;
#237 = AXIS2_PLACEMENT_3D ( 'NONE', #209, #43, #45 ) ;
#238 = EDGE_LOOP ( 'NONE', ( #169 ) ) ;
#239 = APPROVAL_PERSON_ORGANIZATION ( #67, #190, #121 ) ;
#240 = DATE_TIME_ROLE ( 'classification_date' ) ;
#241 = EDGE_LOOP ( 'NONE', ( #206 ) ) ;
#242 = ORIENTED_EDGE ( 'NONE', *, *, #20, .T. ) ;
#243 = CC_DESIGN_PERSON_AND_ORGANIZATION_ASSIGNMENT ( #170, #108, ( #30 ) ) ;
ENDSEC;
END-ISO-10303-21;
