ISO-10303-21;
HEADER;
FILE_DESCRIPTION (( 'STEP AP203' ),
    '1' );
FILE_NAME ('321222.step',
    '2021-11-26T13:01:32',
    ( '' ),
    ( '' ),
    'SwSTEP 2.0',
    'SolidWorks 2019',
    '' );
FILE_SCHEMA (( 'CONFIG_CONTROL_DESIGN' ));
ENDSEC;

DATA;
#1 = DATE_TIME_ROLE ( 'classification_date' ) ;
#2 = ORIENTED_EDGE ( 'NONE', *, *, #177, .T. ) ;
#3 = CC_DESIGN_PERSON_AND_ORGANIZATION_ASSIGNMENT ( #112, #130, ( #124 ) ) ;
#4 = EDGE_LOOP ( 'NONE', ( #201 ) ) ;
#5 = APPLICATION_CONTEXT ( 'configuration controlled 3d designs of mechanical parts and assemblies' ) ;
#6 = FACE_OUTER_BOUND ( 'NONE', #92, .T. ) ;
#7 = AXIS2_PLACEMENT_3D ( 'NONE', #101, #114, #80 ) ;
#8 = DIRECTION ( 'NONE',  ( -3.491481338843133355E-15, 1.049697256412017316E-16, -1.000000000000000000 ) ) ;
#9 = DIRECTION ( 'NONE',  ( 3.491481338843133355E-15, 5.401208425300909362E-16, 1.000000000000000000 ) ) ;
#10 = CARTESIAN_POINT ( 'NONE',  ( 2.444036937190193601E-13, -7.347880794884121511E-15, 70.00000000000000000 ) ) ;
#11 = LOCAL_TIME ( 14, 1, 32.00000000000000000, #148 ) ;
#12 = ADVANCED_FACE ( 'NONE', ( #72, #242 ), #198, .T. ) ;
#13 = FACE_BOUND ( 'NONE', #136, .T. ) ;
#14 = APPROVAL_DATE_TIME ( #175, #66 ) ;
#15 = CALENDAR_DATE ( 2021, 26, 11 ) ;
#16 = LOCAL_TIME ( 14, 1, 32.00000000000000000, #73 ) ;
#17 = MANIFOLD_SOLID_BREP ( 'Corps-Déplacer/Copier1[1]', #110 ) ;
#18 = DIRECTION ( 'NONE',  ( 0.0000000000000000000, 0.0000000000000000000, 1.000000000000000000 ) ) ;
#19 = CC_DESIGN_PERSON_AND_ORGANIZATION_ASSIGNMENT ( #74, #197, ( #77 ) ) ;
#20 = CARTESIAN_POINT ( 'NONE',  ( -1.892735826383164860E-31, 1.449662432702592652, -5.421010862427522170E-17 ) ) ;
#21 = CARTESIAN_POINT ( 'NONE',  ( 3.812599503995805072E-14, -1.146239905285663575E-15, 10.91971897881908937 ) ) ;
#22 = AXIS2_PLACEMENT_3D ( 'NONE', #100, #172, #158 ) ;
#23 = APPROVAL_DATE_TIME ( #226, #75 ) ;
#24 = CIRCLE ( 'NONE', #129, 1.199999999999997513 ) ;
#25 = ORIENTED_EDGE ( 'NONE', *, *, #210, .T. ) ;
#26 = CARTESIAN_POINT ( 'NONE',  ( 3.869445280877825814E-14, -1.163330317703974832E-15, 11.08253175473057794 ) ) ;
#27 = AXIS2_PLACEMENT_3D ( 'NONE', #42, #9, #184 ) ;
#28 = CC_DESIGN_APPROVAL ( #163, ( #77 ) ) ;
#29 = PLANE ( 'NONE',  #27 ) ;
#30 = FACE_OUTER_BOUND ( 'NONE', #205, .T. ) ;
#31 = CC_DESIGN_DATE_AND_TIME_ASSIGNMENT ( #199, #1, ( #77 ) ) ;
#32 = DIRECTION ( 'NONE',  ( 3.664998382197393967E-31, 1.000000000000000000, 1.049697256412017316E-16 ) ) ;
#33 = CIRCLE ( 'NONE', #182, 1.499999999999997558 ) ;
#34 = CC_DESIGN_APPROVAL ( #66, ( #84 ) ) ;
#35 = PERSON_AND_ORGANIZATION_ROLE ( 'design_owner' ) ;
#36 = PERSON_AND_ORGANIZATION_ROLE ( 'creator' ) ;
#37 = CARTESIAN_POINT ( 'NONE',  ( 2.433562493173664138E-13, 1.499999999999990230, 69.70000000000001705 ) ) ;
#38 = VERTEX_POINT ( 'NONE', #37 ) ;
#39 = APPROVAL_STATUS ( 'not_yet_approved' ) ;
#40 = CARTESIAN_POINT ( 'NONE',  ( 0.0000000000000000000, 0.0000000000000000000, 0.0000000000000000000 ) ) ;
#41 = APPROVAL_DATE_TIME ( #68, #163 ) ;
#42 = CARTESIAN_POINT ( 'NONE',  ( 3.812599503995805072E-14, 5.897967815031590989E-15, 10.91971897881908937 ) ) ;
#43 = FACE_OUTER_BOUND ( 'NONE', #183, .T. ) ;
#44 = DIRECTION ( 'NONE',  ( -3.491481338843133355E-15, 1.049697256412017316E-16, -1.000000000000000000 ) ) ;
#45 = FACE_BOUND ( 'NONE', #221, .T. ) ;
#46 = DIRECTION ( 'NONE',  ( -1.885821842414042899E-30, 1.000000000000000000, -5.401208425300909362E-16 ) ) ;
#47 = LOCAL_TIME ( 14, 1, 32.00000000000000000, #103 ) ;
#48 = CARTESIAN_POINT ( 'NONE',  ( 2.444036937190193601E-13, 1.199999999999990186, 70.00000000000000000 ) ) ;
#49 = DIRECTION ( 'NONE',  ( 0.0000000000000000000, 1.000000000000000000, 0.0000000000000000000 ) ) ;
#50 = APPROVAL_ROLE ( '' ) ;
#51 = DIRECTION ( 'NONE',  ( -3.491481338843133355E-15, 1.049697256412017316E-16, -1.000000000000000000 ) ) ;
#52 = ADVANCED_FACE ( 'NONE', ( #117, #120 ), #207, .T. ) ;
#53 = APPLICATION_PROTOCOL_DEFINITION ( 'international standard', 'config_control_design', 1994, #5 ) ;
#54 = EDGE_LOOP ( 'NONE', ( #95 ) ) ;
#55 = AXIS2_PLACEMENT_3D ( 'NONE', #21, #51, #49 ) ;
#56 = ORIENTED_EDGE ( 'NONE', *, *, #236, .F. ) ;
#57 = EDGE_CURVE ( 'NONE', #195, #195, #24, .T. ) ;
#58 = CIRCLE ( 'NONE', #189, 1.449662432702592652 ) ;
#59 = CC_DESIGN_SECURITY_CLASSIFICATION ( #77, ( #124 ) ) ;
#60 = DIRECTION ( 'NONE',  ( -3.491481338843133355E-15, 1.049697256412017316E-16, -1.000000000000000000 ) ) ;
#61 = CARTESIAN_POINT ( 'NONE',  ( 2.544531497079310987E-30, 3.936307723478222425E-31, 7.287827859112703973E-16 ) ) ;
#62 =( GEOMETRIC_REPRESENTATION_CONTEXT ( 3 ) GLOBAL_UNCERTAINTY_ASSIGNED_CONTEXT ( ( #86 ) ) GLOBAL_UNIT_ASSIGNED_CONTEXT ( ( #240, #159, #216 ) ) REPRESENTATION_CONTEXT ( 'NONE', 'WORKASPACE' ) );
#63 = CARTESIAN_POINT ( 'NONE',  ( 3.812599503995805072E-14, 1.593999999999998751, 10.91971897881908937 ) ) ;
#64 = APPROVAL_ROLE ( '' ) ;
#65 = VERTEX_POINT ( 'NONE', #63 ) ;
#66 = APPROVAL ( #191, 'UNSPECIFIED' ) ;
#67 = AXIS2_PLACEMENT_3D ( 'NONE', #143, #79, #213 ) ;
#68 = DATE_AND_TIME ( #107, #16 ) ;
#69 = PRODUCT_DEFINITION_SHAPE ( 'NONE', 'NONE',  #84 ) ;
#70 = CONICAL_SURFACE ( 'NONE', #7, 1.449662432702592652, 0.5235987755982970393 ) ;
#71 = SHAPE_DEFINITION_REPRESENTATION ( #69, #202 ) ;
#72 = FACE_OUTER_BOUND ( 'NONE', #203, .T. ) ;
#73 = COORDINATED_UNIVERSAL_TIME_OFFSET ( 1, 0, .AHEAD. ) ;
#74 = PERSON_AND_ORGANIZATION ( #212, #162 ) ;
#75 = APPROVAL ( #239, 'UNSPECIFIED' ) ;
#76 = CONICAL_SURFACE ( 'NONE', #90, 1.593999999999999861, 0.5235987755982967062 ) ;
#77 = SECURITY_CLASSIFICATION ( '', '', #196 ) ;
#78 = FACE_OUTER_BOUND ( 'NONE', #113, .T. ) ;
#79 = DIRECTION ( 'NONE',  ( -3.491481338843133355E-15, -5.401208425300909362E-16, -1.000000000000000000 ) ) ;
#80 = DIRECTION ( 'NONE',  ( 1.885821842414043250E-30, -1.000000000000000000, 5.401208425300909362E-16 ) ) ;
#81 = PLANE ( 'NONE',  #134 ) ;
#82 = DIRECTION ( 'NONE',  ( -3.491481338843133355E-15, -5.401208425300909362E-16, -1.000000000000000000 ) ) ;
#83 = PERSON_AND_ORGANIZATION ( #212, #162 ) ;
#84 = PRODUCT_DEFINITION ( 'UNKNOWN', '', #124, #146 ) ;
#85 = DATE_AND_TIME ( #15, #47 ) ;
#86 = UNCERTAINTY_MEASURE_WITH_UNIT (LENGTH_MEASURE( 1.000000000000000082E-05 ), #240, 'distance_accuracy_value', 'NONE');
#87 = COORDINATED_UNIVERSAL_TIME_OFFSET ( 1, 0, .AHEAD. ) ;
#88 = ADVANCED_FACE ( 'NONE', ( #43, #45 ), #70, .T. ) ;
#89 = CARTESIAN_POINT ( 'NONE',  ( 3.869445280877825814E-14, 1.499999999999991562, 11.08253175473057794 ) ) ;
#90 = AXIS2_PLACEMENT_3D ( 'NONE', #235, #60, #97 ) ;
#91 = COORDINATED_UNIVERSAL_TIME_OFFSET ( 1, 0, .AHEAD. ) ;
#92 = EDGE_LOOP ( 'NONE', ( #224 ) ) ;
#93 = ORIENTED_EDGE ( 'NONE', *, *, #111, .T. ) ;
#94 = MANIFOLD_SOLID_BREP ( 'Corps-Déplacer/Copier1[2]', #193 ) ;
#95 = ORIENTED_EDGE ( 'NONE', *, *, #177, .F. ) ;
#96 = EDGE_LOOP ( 'NONE', ( #93 ) ) ;
#97 = DIRECTION ( 'NONE',  ( 0.0000000000000000000, 1.000000000000000000, 0.0000000000000000000 ) ) ;
#98 = DIRECTION ( 'NONE',  ( -3.491481338843133355E-15, -5.401208425300909362E-16, -1.000000000000000000 ) ) ;
#99 = DIRECTION ( 'NONE',  ( -1.885821842414043250E-30, 1.000000000000000000, -5.401208425300909362E-16 ) ) ;
#100 = CARTESIAN_POINT ( 'NONE',  ( 2.433562493173664138E-13, -7.316389877191761450E-15, 69.70000000000001705 ) ) ;
#101 = CARTESIAN_POINT ( 'NONE',  ( 2.544531497079310987E-30, 3.936307723478222425E-31, 7.287827859112703973E-16 ) ) ;
#102 = CALENDAR_DATE ( 2021, 26, 11 ) ;
#103 = COORDINATED_UNIVERSAL_TIME_OFFSET ( 1, 0, .AHEAD. ) ;
#104 = VERTEX_POINT ( 'NONE', #237 ) ;
#105 = PERSON_AND_ORGANIZATION ( #212, #162 ) ;
#106 = VERTEX_POINT ( 'NONE', #217 ) ;
#107 = CALENDAR_DATE ( 2021, 26, 11 ) ;
#108 = CC_DESIGN_DATE_AND_TIME_ASSIGNMENT ( #85, #161, ( #84 ) ) ;
#109 = EDGE_LOOP ( 'NONE', ( #132 ) ) ;
#110 = CLOSED_SHELL ( 'NONE', ( #127, #225, #52, #116, #180 ) ) ;
#111 = EDGE_CURVE ( 'NONE', #38, #38, #33, .T. ) ;
#112 = PERSON_AND_ORGANIZATION ( #212, #162 ) ;
#113 = EDGE_LOOP ( 'NONE', ( #56 ) ) ;
#114 = DIRECTION ( 'NONE',  ( 3.491481338843133355E-15, 5.401208425300909362E-16, 1.000000000000000000 ) ) ;
#115 = FACE_OUTER_BOUND ( 'NONE', #227, .T. ) ;
#116 = ADVANCED_FACE ( 'NONE', ( #13, #78 ), #76, .T. ) ;
#117 = FACE_OUTER_BOUND ( 'NONE', #96, .T. ) ;
#118 = DIRECTION ( 'NONE',  ( -1.933179367013538267E-30, 1.000000000000000000, -5.441416173076563916E-16 ) ) ;
#119 = CONICAL_SURFACE ( 'NONE', #22, 1.499999999999997558, 0.7853981633974573828 ) ;
#120 = FACE_OUTER_BOUND ( 'NONE', #168, .T. ) ;
#121 = LOCAL_TIME ( 14, 1, 32.00000000000000000, #87 ) ;
#122 = VERTEX_POINT ( 'NONE', #20 ) ;
#123 = MECHANICAL_CONTEXT ( 'NONE', #231, 'mechanical' ) ;
#124 = PRODUCT_DEFINITION_FORMATION_WITH_SPECIFIED_SOURCE ( 'ANY', '', #135, .NOT_KNOWN. ) ;
#125 = DIRECTION ( 'NONE',  ( -3.491481338843133355E-15, -5.401208425300909362E-16, -1.000000000000000000 ) ) ;
#126 = DIRECTION ( 'NONE',  ( 1.000000000000000000, 0.0000000000000000000, 0.0000000000000000000 ) ) ;
#127 = ADVANCED_FACE ( 'NONE', ( #115 ), #186, .T. ) ;
#128 = ORIENTED_EDGE ( 'NONE', *, *, #57, .F. ) ;
#129 = AXIS2_PLACEMENT_3D ( 'NONE', #138, #171, #155 ) ;
#130 = PERSON_AND_ORGANIZATION_ROLE ( 'design_supplier' ) ;
#131 = ORIENTED_EDGE ( 'NONE', *, *, #210, .F. ) ;
#132 = ORIENTED_EDGE ( 'NONE', *, *, #214, .T. ) ;
#133 = CC_DESIGN_PERSON_AND_ORGANIZATION_ASSIGNMENT ( #176, #35, ( #135 ) ) ;
#134 = AXIS2_PLACEMENT_3D ( 'NONE', #137, #44, #187 ) ;
#135 = PRODUCT ( '321222', '321222', '', ( #123 ) ) ;
#136 = EDGE_LOOP ( 'NONE', ( #25 ) ) ;
#137 = CARTESIAN_POINT ( 'NONE',  ( 3.812599503995805072E-14, 1.593999999999998751, 10.91971897881908937 ) ) ;
#138 = CARTESIAN_POINT ( 'NONE',  ( 2.444036937190193601E-13, -7.347880794884121511E-15, 70.00000000000000000 ) ) ;
#139 = CIRCLE ( 'NONE', #164, 1.499999999999992673 ) ;
#140 = DIRECTION ( 'NONE',  ( -3.491481338843133355E-15, 1.049697256412017316E-16, -1.000000000000000000 ) ) ;
#141 = DIRECTION ( 'NONE',  ( -3.491481338843133355E-15, 1.049697256412017316E-16, -1.000000000000000000 ) ) ;
#142 = PRODUCT_RELATED_PRODUCT_CATEGORY ( 'detail', '', ( #135 ) ) ;
#143 = CARTESIAN_POINT ( 'NONE',  ( 3.812599503995805072E-14, 5.897967815031590989E-15, 10.91971897881908937 ) ) ;
#144 = AXIS2_PLACEMENT_3D ( 'NONE', #10, #229, #188 ) ;
#145 = VERTEX_POINT ( 'NONE', #89 ) ;
#146 = DESIGN_CONTEXT ( 'detailed design', #5, 'design' ) ;
#147 = CC_DESIGN_PERSON_AND_ORGANIZATION_ASSIGNMENT ( #167, #223, ( #124 ) ) ;
#148 = COORDINATED_UNIVERSAL_TIME_OFFSET ( 1, 0, .AHEAD. ) ;
#149 = CIRCLE ( 'NONE', #173, 1.593999999999998529 ) ;
#150 = CARTESIAN_POINT ( 'NONE',  ( -1.461539331177971607E-30, 1.449662432702592652, -4.186015015799104204E-16 ) ) ;
#151 = ORIENTED_EDGE ( 'NONE', *, *, #214, .F. ) ;
#152 = ORIENTED_EDGE ( 'NONE', *, *, #111, .F. ) ;
#153 = AXIS2_PLACEMENT_3D ( 'NONE', #40, #190, #46 ) ;
#154 = APPROVAL_PERSON_ORGANIZATION ( #238, #75, #64 ) ;
#155 = DIRECTION ( 'NONE',  ( 0.0000000000000000000, 1.000000000000000000, 0.0000000000000000000 ) ) ;
#156 = CARTESIAN_POINT ( 'NONE',  ( 8.728703347107862970E-16, 1.350302106325231778E-16, 0.2500000000000008327 ) ) ;
#157 = FACE_BOUND ( 'NONE', #4, .T. ) ;
#158 = DIRECTION ( 'NONE',  ( 0.0000000000000000000, 1.000000000000000000, 0.0000000000000000000 ) ) ;
#159 =( NAMED_UNIT ( * ) PLANE_ANGLE_UNIT ( ) SI_UNIT ( $, .RADIAN. ) );
#160 = CIRCLE ( 'NONE', #55, 1.593999999999999861 ) ;
#161 = DATE_TIME_ROLE ( 'creation_date' ) ;
#162 = ORGANIZATION ( 'UNSPECIFIED', 'UNSPECIFIED', '' ) ;
#163 = APPROVAL ( #39, 'UNSPECIFIED' ) ;
#164 = AXIS2_PLACEMENT_3D ( 'NONE', #26, #141, #230 ) ;
#165 = APPROVAL_ROLE ( '' ) ;
#166 = EDGE_LOOP ( 'NONE', ( #181 ) ) ;
#167 = PERSON_AND_ORGANIZATION ( #212, #162 ) ;
#168 = EDGE_LOOP ( 'NONE', ( #131 ) ) ;
#169 = EDGE_CURVE ( 'NONE', #106, #106, #149, .T. ) ;
#170 = CARTESIAN_POINT ( 'NONE',  ( 0.0000000000000000000, 0.0000000000000000000, 0.0000000000000000000 ) ) ;
#171 = DIRECTION ( 'NONE',  ( -3.491481338843133355E-15, 1.049697256412017316E-16, -1.000000000000000000 ) ) ;
#172 = DIRECTION ( 'NONE',  ( -3.491481338843133355E-15, 1.049697256412017316E-16, -1.000000000000000000 ) ) ;
#173 = AXIS2_PLACEMENT_3D ( 'NONE', #156, #82, #118 ) ;
#174 = DIRECTION ( 'NONE',  ( 0.0000000000000000000, 1.000000000000000000, 0.0000000000000000000 ) ) ;
#175 = DATE_AND_TIME ( #102, #121 ) ;
#176 = PERSON_AND_ORGANIZATION ( #212, #162 ) ;
#177 = EDGE_CURVE ( 'NONE', #104, #104, #208, .T. ) ;
#178 = AXIS2_PLACEMENT_3D ( 'NONE', #150, #125, #192 ) ;
#179 = CC_DESIGN_APPROVAL ( #75, ( #124 ) ) ;
#180 = ADVANCED_FACE ( 'NONE', ( #6 ), #81, .T. ) ;
#181 = ORIENTED_EDGE ( 'NONE', *, *, #169, .F. ) ;
#182 = AXIS2_PLACEMENT_3D ( 'NONE', #233, #8, #174 ) ;
#183 = EDGE_LOOP ( 'NONE', ( #222 ) ) ;
#184 = DIRECTION ( 'NONE',  ( 1.885821842414043250E-30, -1.000000000000000000, 5.401208425300909362E-16 ) ) ;
#185 = AXIS2_PLACEMENT_3D ( 'NONE', #218, #18, #126 ) ;
#186 = PLANE ( 'NONE',  #144 ) ;
#187 = DIRECTION ( 'NONE',  ( 3.664998382197393967E-31, 1.000000000000000000, 1.049697256412017316E-16 ) ) ;
#188 = DIRECTION ( 'NONE',  ( -3.664998382197393967E-31, -1.000000000000000000, -1.049697256412017316E-16 ) ) ;
#189 = AXIS2_PLACEMENT_3D ( 'NONE', #61, #98, #99 ) ;
#190 = DIRECTION ( 'NONE',  ( -3.491481338843133355E-15, -5.401208425300909362E-16, -1.000000000000000000 ) ) ;
#191 = APPROVAL_STATUS ( 'not_yet_approved' ) ;
#192 = DIRECTION ( 'NONE',  ( -1.885821842414043250E-30, 1.000000000000000000, -5.401208425300909362E-16 ) ) ;
#193 = CLOSED_SHELL ( 'NONE', ( #200, #12, #88, #232 ) ) ;
#194 = LOCAL_TIME ( 14, 1, 32.00000000000000000, #91 ) ;
#195 = VERTEX_POINT ( 'NONE', #48 ) ;
#196 = SECURITY_CLASSIFICATION_LEVEL ( 'unclassified' ) ;
#197 = PERSON_AND_ORGANIZATION_ROLE ( 'classification_officer' ) ;
#198 = CYLINDRICAL_SURFACE ( 'NONE', #153, 1.593999999999995865 ) ;
#199 = DATE_AND_TIME ( #241, #194 ) ;
#200 = ADVANCED_FACE ( 'NONE', ( #206 ), #29, .T. ) ;
#201 = ORIENTED_EDGE ( 'NONE', *, *, #57, .T. ) ;
#202 = ADVANCED_BREP_SHAPE_REPRESENTATION ( '321222', ( #17, #94, #185 ), #62 ) ;
#203 = EDGE_LOOP ( 'NONE', ( #2 ) ) ;
#204 = PERSON_AND_ORGANIZATION ( #212, #162 ) ;
#205 = EDGE_LOOP ( 'NONE', ( #152 ) ) ;
#206 = FACE_OUTER_BOUND ( 'NONE', #54, .T. ) ;
#207 = CYLINDRICAL_SURFACE ( 'NONE', #228, 1.499999999999995337 ) ;
#208 = CIRCLE ( 'NONE', #67, 1.593999999999992978 ) ;
#209 = APPROVAL_PERSON_ORGANIZATION ( #105, #66, #50 ) ;
#210 = EDGE_CURVE ( 'NONE', #145, #145, #139, .T. ) ;
#211 = PLANE ( 'NONE',  #178 ) ;
#212 = PERSON ( 'UNSPECIFIED', 'UNSPECIFIED', 'UNSPECIFIED', ('UNSPECIFIED'), ('UNSPECIFIED'), ('UNSPECIFIED') ) ;
#213 = DIRECTION ( 'NONE',  ( 0.0000000000000000000, 1.000000000000000000, 0.0000000000000000000 ) ) ;
#214 = EDGE_CURVE ( 'NONE', #122, #122, #58, .T. ) ;
#215 = APPROVAL_PERSON_ORGANIZATION ( #204, #163, #165 ) ;
#216 =( NAMED_UNIT ( * ) SI_UNIT ( $, .STERADIAN. ) SOLID_ANGLE_UNIT ( ) );
#217 = CARTESIAN_POINT ( 'NONE',  ( 8.728703347107831416E-16, 1.593999999999998751, 0.2499999999999999445 ) ) ;
#218 = CARTESIAN_POINT ( 'NONE',  ( 0.0000000000000000000, 0.0000000000000000000, 0.0000000000000000000 ) ) ;
#219 = APPLICATION_PROTOCOL_DEFINITION ( 'international standard', 'config_control_design', 1994, #231 ) ;
#220 = CALENDAR_DATE ( 2021, 26, 11 ) ;
#221 = EDGE_LOOP ( 'NONE', ( #151 ) ) ;
#222 = ORIENTED_EDGE ( 'NONE', *, *, #169, .T. ) ;
#223 = PERSON_AND_ORGANIZATION_ROLE ( 'creator' ) ;
#224 = ORIENTED_EDGE ( 'NONE', *, *, #236, .T. ) ;
#225 = ADVANCED_FACE ( 'NONE', ( #157, #30 ), #119, .T. ) ;
#226 = DATE_AND_TIME ( #220, #11 ) ;
#227 = EDGE_LOOP ( 'NONE', ( #128 ) ) ;
#228 = AXIS2_PLACEMENT_3D ( 'NONE', #170, #140, #32 ) ;
#229 = DIRECTION ( 'NONE',  ( 3.491481338843133355E-15, -1.049697256412017316E-16, 1.000000000000000000 ) ) ;
#230 = DIRECTION ( 'NONE',  ( 0.0000000000000000000, 1.000000000000000000, 0.0000000000000000000 ) ) ;
#231 = APPLICATION_CONTEXT ( 'configuration controlled 3d designs of mechanical parts and assemblies' ) ;
#232 = ADVANCED_FACE ( 'NONE', ( #234 ), #211, .T. ) ;
#233 = CARTESIAN_POINT ( 'NONE',  ( 2.433562493173664138E-13, -7.316389877191761450E-15, 69.70000000000001705 ) ) ;
#234 = FACE_OUTER_BOUND ( 'NONE', #109, .T. ) ;
#235 = CARTESIAN_POINT ( 'NONE',  ( 3.812599503995805072E-14, -1.146239905285663575E-15, 10.91971897881908937 ) ) ;
#236 = EDGE_CURVE ( 'NONE', #65, #65, #160, .T. ) ;
#237 = CARTESIAN_POINT ( 'NONE',  ( 3.812599503995805072E-14, 1.593999999999998751, 10.91971897881908937 ) ) ;
#238 = PERSON_AND_ORGANIZATION ( #212, #162 ) ;
#239 = APPROVAL_STATUS ( 'not_yet_approved' ) ;
#240 =( LENGTH_UNIT ( ) NAMED_UNIT ( * ) SI_UNIT ( .MILLI., .METRE. ) );
#241 = CALENDAR_DATE ( 2021, 26, 11 ) ;
#242 = FACE_OUTER_BOUND ( 'NONE', #166, .T. ) ;
#243 = CC_DESIGN_PERSON_AND_ORGANIZATION_ASSIGNMENT ( #83, #36, ( #84 ) ) ;
ENDSEC;
END-ISO-10303-21;
