ISO-10303-21;
HEADER;
FILE_DESCRIPTION (( 'STEP AP203' ),
    '1' );
FILE_NAME ('321221.step',
    '2021-11-26T13:01:31',
    ( '' ),
    ( '' ),
    'SwSTEP 2.0',
    'SolidWorks 2019',
    '' );
FILE_SCHEMA (( 'CONFIG_CONTROL_DESIGN' ));
ENDSEC;

DATA;
#1 = AXIS2_PLACEMENT_3D ( 'NONE', #129, #241, #60 ) ;
#2 = DATE_AND_TIME ( #116, #210 ) ;
#3 = PERSON_AND_ORGANIZATION ( #198, #21 ) ;
#4 = EDGE_LOOP ( 'NONE', ( #67 ) ) ;
#5 = DATE_AND_TIME ( #8, #64 ) ;
#6 = EDGE_LOOP ( 'NONE', ( #232 ) ) ;
#7 = FACE_OUTER_BOUND ( 'NONE', #83, .T. ) ;
#8 = CALENDAR_DATE ( 2021, 26, 11 ) ;
#9 = EDGE_LOOP ( 'NONE', ( #52 ) ) ;
#10 = DIRECTION ( 'NONE',  ( -1.883649731341711891E-30, 1.000000000000000000, -5.394987251931983694E-16 ) ) ;
#11 = DIRECTION ( 'NONE',  ( 3.491481338843133355E-15, -1.049697256412017316E-16, 1.000000000000000000 ) ) ;
#12 = EDGE_CURVE ( 'NONE', #59, #59, #207, .T. ) ;
#13 = FACE_OUTER_BOUND ( 'NONE', #30, .T. ) ;
#14 = CARTESIAN_POINT ( 'NONE',  ( 3.869445280877825814E-14, 1.499999999999991562, 11.08253175473057794 ) ) ;
#15 = MANIFOLD_SOLID_BREP ( 'Corps-Déplacer/Copier1[2]', #69 ) ;
#16 = AXIS2_PLACEMENT_3D ( 'NONE', #73, #119, #168 ) ;
#17 = MANIFOLD_SOLID_BREP ( 'Corps-Déplacer/Copier1[1]', #115 ) ;
#18 = APPROVAL_DATE_TIME ( #2, #195 ) ;
#19 = EDGE_LOOP ( 'NONE', ( #157 ) ) ;
#20 = APPLICATION_CONTEXT ( 'configuration controlled 3d designs of mechanical parts and assemblies' ) ;
#21 = ORGANIZATION ( 'UNSPECIFIED', 'UNSPECIFIED', '' ) ;
#22 = MECHANICAL_CONTEXT ( 'NONE', #220, 'mechanical' ) ;
#23 = ADVANCED_FACE ( 'NONE', ( #7 ), #221, .T. ) ;
#24 = PRODUCT_DEFINITION_SHAPE ( 'NONE', 'NONE',  #41 ) ;
#25 =( NAMED_UNIT ( * ) SI_UNIT ( $, .STERADIAN. ) SOLID_ANGLE_UNIT ( ) );
#26 = AXIS2_PLACEMENT_3D ( 'NONE', #223, #143, #10 ) ;
#27 = FACE_OUTER_BOUND ( 'NONE', #65, .T. ) ;
#28 = DATE_AND_TIME ( #53, #91 ) ;
#29 = PLANE ( 'NONE',  #225 ) ;
#30 = EDGE_LOOP ( 'NONE', ( #234 ) ) ;
#31 = ORIENTED_EDGE ( 'NONE', *, *, #229, .T. ) ;
#32 = PRODUCT_DEFINITION_FORMATION_WITH_SPECIFIED_SOURCE ( 'ANY', '', #201, .NOT_KNOWN. ) ;
#33 = FACE_OUTER_BOUND ( 'NONE', #202, .T. ) ;
#34 = DIRECTION ( 'NONE',  ( -3.491481338843133355E-15, 1.049697256412017316E-16, -1.000000000000000000 ) ) ;
#35 = CARTESIAN_POINT ( 'NONE',  ( 2.444036937190193601E-13, 1.199999999999990186, 70.00000000000000000 ) ) ;
#36 = AXIS2_PLACEMENT_3D ( 'NONE', #110, #191, #75 ) ;
#37 = CC_DESIGN_APPROVAL ( #167, ( #79 ) ) ;
#38 = UNCERTAINTY_MEASURE_WITH_UNIT (LENGTH_MEASURE( 1.000000000000000082E-05 ), #113, 'distance_accuracy_value', 'NONE');
#39 = CARTESIAN_POINT ( 'NONE',  ( 3.815623215532083207E-14, 1.588999999999998636, 10.92837923285693513 ) ) ;
#40 = ADVANCED_FACE ( 'NONE', ( #33 ), #90, .T. ) ;
#41 = PRODUCT_DEFINITION ( 'UNKNOWN', '', #32, #92 ) ;
#42 = AXIS2_PLACEMENT_3D ( 'NONE', #107, #144, #72 ) ;
#43 = APPLICATION_PROTOCOL_DEFINITION ( 'international standard', 'config_control_design', 1994, #20 ) ;
#44 = DATE_AND_TIME ( #243, #219 ) ;
#45 = PERSON_AND_ORGANIZATION_ROLE ( 'design_supplier' ) ;
#46 = AXIS2_PLACEMENT_3D ( 'NONE', #114, #161, #136 ) ;
#47 = PERSON_AND_ORGANIZATION_ROLE ( 'classification_officer' ) ;
#48 = DIRECTION ( 'NONE',  ( -3.491481338843133355E-15, 1.049697256412017316E-16, -1.000000000000000000 ) ) ;
#49 = AXIS2_PLACEMENT_3D ( 'NONE', #127, #186, #78 ) ;
#50 = CARTESIAN_POINT ( 'NONE',  ( 2.531964420601386195E-30, 3.912355371779218521E-31, 7.251834321532781346E-16 ) ) ;
#51 = PERSON_AND_ORGANIZATION ( #198, #21 ) ;
#52 = ORIENTED_EDGE ( 'NONE', *, *, #112, .T. ) ;
#53 = CALENDAR_DATE ( 2021, 26, 11 ) ;
#54 = FACE_OUTER_BOUND ( 'NONE', #6, .T. ) ;
#55 = SHAPE_DEFINITION_REPRESENTATION ( #24, #124 ) ;
#56 = AXIS2_PLACEMENT_3D ( 'NONE', #238, #87, #123 ) ;
#57 = DIRECTION ( 'NONE',  ( 0.0000000000000000000, 1.000000000000000000, 0.0000000000000000000 ) ) ;
#58 = AXIS2_PLACEMENT_3D ( 'NONE', #236, #11, #141 ) ;
#59 = VERTEX_POINT ( 'NONE', #14 ) ;
#60 = DIRECTION ( 'NONE',  ( 1.883649731341711891E-30, -1.000000000000000000, 5.394987251931983694E-16 ) ) ;
#61 = APPROVAL_PERSON_ORGANIZATION ( #214, #195, #213 ) ;
#62 = ADVANCED_FACE ( 'NONE', ( #70, #109 ), #224, .T. ) ;
#63 = APPLICATION_PROTOCOL_DEFINITION ( 'international standard', 'config_control_design', 1994, #220 ) ;
#64 = LOCAL_TIME ( 14, 1, 31.00000000000000000, #239 ) ;
#65 = EDGE_LOOP ( 'NONE', ( #135 ) ) ;
#66 = APPROVAL_PERSON_ORGANIZATION ( #94, #155, #212 ) ;
#67 = ORIENTED_EDGE ( 'NONE', *, *, #12, .T. ) ;
#68 = DIRECTION ( 'NONE',  ( 0.0000000000000000000, 1.000000000000000000, 0.0000000000000000000 ) ) ;
#69 = CLOSED_SHELL ( 'NONE', ( #237, #71, #215, #40 ) ) ;
#70 = FACE_BOUND ( 'NONE', #4, .T. ) ;
#71 = ADVANCED_FACE ( 'NONE', ( #27, #187 ), #217, .T. ) ;
#72 = DIRECTION ( 'NONE',  ( 0.0000000000000000000, 1.000000000000000000, 0.0000000000000000000 ) ) ;
#73 = CARTESIAN_POINT ( 'NONE',  ( 0.0000000000000000000, 0.0000000000000000000, 0.0000000000000000000 ) ) ;
#74 = CIRCLE ( 'NONE', #49, 1.588999999999992863 ) ;
#75 = DIRECTION ( 'NONE',  ( 1.883649731341711891E-30, -1.000000000000000000, 5.394987251931983694E-16 ) ) ;
#76 = ADVANCED_FACE ( 'NONE', ( #222, #89 ), #163, .T. ) ;
#77 = PLANE ( 'NONE',  #36 ) ;
#78 = DIRECTION ( 'NONE',  ( 0.0000000000000000000, 1.000000000000000000, 0.0000000000000000000 ) ) ;
#79 = SECURITY_CLASSIFICATION ( '', '', #120 ) ;
#80 = CC_DESIGN_PERSON_AND_ORGANIZATION_ASSIGNMENT ( #51, #47, ( #79 ) ) ;
#81 = PERSON_AND_ORGANIZATION ( #198, #21 ) ;
#82 = APPROVAL_STATUS ( 'not_yet_approved' ) ;
#83 = EDGE_LOOP ( 'NONE', ( #97 ) ) ;
#84 = CONICAL_SURFACE ( 'NONE', #1, 1.444662432702592536, 0.5235987755982970393 ) ;
#85 = AXIS2_PLACEMENT_3D ( 'NONE', #121, #216, #86 ) ;
#86 = DIRECTION ( 'NONE',  ( -1.939262373203008526E-30, 1.000000000000000000, -5.458538313331683090E-16 ) ) ;
#87 = DIRECTION ( 'NONE',  ( -3.491481338843133355E-15, -5.394987251931983694E-16, -1.000000000000000000 ) ) ;
#88 = FACE_OUTER_BOUND ( 'NONE', #138, .T. ) ;
#89 = FACE_OUTER_BOUND ( 'NONE', #205, .T. ) ;
#90 = PLANE ( 'NONE',  #56 ) ;
#91 = LOCAL_TIME ( 14, 1, 31.00000000000000000, #100 ) ;
#92 = DESIGN_CONTEXT ( 'detailed design', #20, 'design' ) ;
#93 = CALENDAR_DATE ( 2021, 26, 11 ) ;
#94 = PERSON_AND_ORGANIZATION ( #198, #21 ) ;
#95 = EDGE_CURVE ( 'NONE', #226, #226, #131, .T. ) ;
#96 =( NAMED_UNIT ( * ) PLANE_ANGLE_UNIT ( ) SI_UNIT ( $, .RADIAN. ) );
#97 = ORIENTED_EDGE ( 'NONE', *, *, #197, .F. ) ;
#98 = DATE_TIME_ROLE ( 'creation_date' ) ;
#99 = ADVANCED_FACE ( 'NONE', ( #13, #54 ), #170, .T. ) ;
#100 = COORDINATED_UNIVERSAL_TIME_OFFSET ( 1, 0, .AHEAD. ) ;
#101 = CC_DESIGN_DATE_AND_TIME_ASSIGNMENT ( #28, #122, ( #79 ) ) ;
#102 = CIRCLE ( 'NONE', #218, 1.499999999999997558 ) ;
#103 = DIRECTION ( 'NONE',  ( -3.491481338843133355E-15, -5.394987251931983694E-16, -1.000000000000000000 ) ) ;
#104 = APPROVAL_DATE_TIME ( #5, #167 ) ;
#105 = CARTESIAN_POINT ( 'NONE',  ( 2.433562493173664138E-13, -7.316389877191761450E-15, 69.70000000000001705 ) ) ;
#106 = DIRECTION ( 'NONE',  ( -1.883649731341711891E-30, 1.000000000000000000, -5.394987251931983694E-16 ) ) ;
#107 = CARTESIAN_POINT ( 'NONE',  ( 3.815623215532083207E-14, -1.147148969775999102E-15, 10.92837923285693513 ) ) ;
#108 = PRODUCT_RELATED_PRODUCT_CATEGORY ( 'detail', '', ( #201 ) ) ;
#109 = FACE_OUTER_BOUND ( 'NONE', #206, .T. ) ;
#110 = CARTESIAN_POINT ( 'NONE',  ( 3.815623215532083839E-14, 5.895846664554140111E-15, 10.92837923285693691 ) ) ;
#111 = CARTESIAN_POINT ( 'NONE',  ( 3.815623215532083207E-14, 1.588999999999998636, 10.92837923285693513 ) ) ;
#112 = EDGE_CURVE ( 'NONE', #148, #148, #194, .T. ) ;
#113 =( LENGTH_UNIT ( ) NAMED_UNIT ( * ) SI_UNIT ( .MILLI., .METRE. ) );
#114 = CARTESIAN_POINT ( 'NONE',  ( 0.0000000000000000000, 0.0000000000000000000, 0.0000000000000000000 ) ) ;
#115 = CLOSED_SHELL ( 'NONE', ( #23, #76, #99, #62, #172 ) ) ;
#116 = CALENDAR_DATE ( 2021, 26, 11 ) ;
#117 = COORDINATED_UNIVERSAL_TIME_OFFSET ( 1, 0, .AHEAD. ) ;
#118 = ORIENTED_EDGE ( 'NONE', *, *, #112, .F. ) ;
#119 = DIRECTION ( 'NONE',  ( -3.491481338843133355E-15, 1.049697256412017316E-16, -1.000000000000000000 ) ) ;
#120 = SECURITY_CLASSIFICATION_LEVEL ( 'unclassified' ) ;
#121 = CARTESIAN_POINT ( 'NONE',  ( 8.728703347107862970E-16, 1.348746812983000361E-16, 0.2500000000000008327 ) ) ;
#122 = DATE_TIME_ROLE ( 'classification_date' ) ;
#123 = DIRECTION ( 'NONE',  ( -1.883649731341711891E-30, 1.000000000000000000, -5.394987251931983694E-16 ) ) ;
#124 = ADVANCED_BREP_SHAPE_REPRESENTATION ( '321221', ( #17, #15, #46 ), #162 ) ;
#125 = PERSON_AND_ORGANIZATION ( #198, #21 ) ;
#126 = CARTESIAN_POINT ( 'NONE',  ( 3.815623215532083839E-14, 1.588999999999998636, 10.92837923285693691 ) ) ;
#127 = CARTESIAN_POINT ( 'NONE',  ( 3.815623215532083207E-14, 5.895846664554139322E-15, 10.92837923285693513 ) ) ;
#128 = CC_DESIGN_PERSON_AND_ORGANIZATION_ASSIGNMENT ( #3, #211, ( #201 ) ) ;
#129 = CARTESIAN_POINT ( 'NONE',  ( 2.531964420601386195E-30, 3.912355371779218521E-31, 7.251834321532781346E-16 ) ) ;
#130 = VERTEX_POINT ( 'NONE', #35 ) ;
#131 = CIRCLE ( 'NONE', #183, 1.444662432702592536 ) ;
#132 = CC_DESIGN_APPROVAL ( #155, ( #32 ) ) ;
#133 = VERTEX_POINT ( 'NONE', #39 ) ;
#134 = CARTESIAN_POINT ( 'NONE',  ( 2.433562493173664138E-13, 1.499999999999990230, 69.70000000000001705 ) ) ;
#135 = ORIENTED_EDGE ( 'NONE', *, *, #199, .T. ) ;
#136 = DIRECTION ( 'NONE',  ( 1.000000000000000000, 0.0000000000000000000, 0.0000000000000000000 ) ) ;
#137 = PERSON_AND_ORGANIZATION ( #198, #21 ) ;
#138 = EDGE_LOOP ( 'NONE', ( #31 ) ) ;
#139 = CIRCLE ( 'NONE', #184, 1.199999999999997513 ) ;
#140 = DIRECTION ( 'NONE',  ( 3.664998382197393967E-31, 1.000000000000000000, 1.049697256412017316E-16 ) ) ;
#141 = DIRECTION ( 'NONE',  ( -3.664998382197393967E-31, -1.000000000000000000, -1.049697256412017316E-16 ) ) ;
#142 = AXIS2_PLACEMENT_3D ( 'NONE', #208, #34, #227 ) ;
#143 = DIRECTION ( 'NONE',  ( -3.491481338843133355E-15, -5.394987251931983694E-16, -1.000000000000000000 ) ) ;
#144 = DIRECTION ( 'NONE',  ( -3.491481338843133355E-15, 1.049697256412017316E-16, -1.000000000000000000 ) ) ;
#145 = APPROVAL_ROLE ( '' ) ;
#146 = DIRECTION ( 'NONE',  ( -3.491481338843133355E-15, 1.049697256412017316E-16, -1.000000000000000000 ) ) ;
#147 = AXIS2_PLACEMENT_3D ( 'NONE', #200, #185, #68 ) ;
#148 = VERTEX_POINT ( 'NONE', #149 ) ;
#149 = CARTESIAN_POINT ( 'NONE',  ( 8.728703347107831416E-16, 1.588999999999998636, 0.2499999999999999445 ) ) ;
#150 = CC_DESIGN_DATE_AND_TIME_ASSIGNMENT ( #44, #98, ( #41 ) ) ;
#151 = VERTEX_POINT ( 'NONE', #134 ) ;
#152 = APPROVAL_STATUS ( 'not_yet_approved' ) ;
#153 = APPROVAL_DATE_TIME ( #178, #155 ) ;
#154 = AXIS2_PLACEMENT_3D ( 'NONE', #204, #190, #165 ) ;
#155 = APPROVAL ( #152, 'UNSPECIFIED' ) ;
#156 = PERSON_AND_ORGANIZATION_ROLE ( 'creator' ) ;
#157 = ORIENTED_EDGE ( 'NONE', *, *, #197, .T. ) ;
#158 = COORDINATED_UNIVERSAL_TIME_OFFSET ( 1, 0, .AHEAD. ) ;
#159 = ORIENTED_EDGE ( 'NONE', *, *, #199, .F. ) ;
#160 = CC_DESIGN_PERSON_AND_ORGANIZATION_ASSIGNMENT ( #231, #177, ( #41 ) ) ;
#161 = DIRECTION ( 'NONE',  ( 0.0000000000000000000, 0.0000000000000000000, 1.000000000000000000 ) ) ;
#162 =( GEOMETRIC_REPRESENTATION_CONTEXT ( 3 ) GLOBAL_UNCERTAINTY_ASSIGNED_CONTEXT ( ( #38 ) ) GLOBAL_UNIT_ASSIGNED_CONTEXT ( ( #113, #96, #25 ) ) REPRESENTATION_CONTEXT ( 'NONE', 'WORKASPACE' ) );
#163 = CONICAL_SURFACE ( 'NONE', #154, 1.499999999999997558, 0.7853981633974573828 ) ;
#164 = EDGE_LOOP ( 'NONE', ( #159 ) ) ;
#165 = DIRECTION ( 'NONE',  ( 0.0000000000000000000, 1.000000000000000000, 0.0000000000000000000 ) ) ;
#166 = EDGE_LOOP ( 'NONE', ( #118 ) ) ;
#167 = APPROVAL ( #203, 'UNSPECIFIED' ) ;
#168 = DIRECTION ( 'NONE',  ( 3.664998382197393967E-31, 1.000000000000000000, 1.049697256412017316E-16 ) ) ;
#169 = CC_DESIGN_PERSON_AND_ORGANIZATION_ASSIGNMENT ( #81, #156, ( #32 ) ) ;
#170 = CYLINDRICAL_SURFACE ( 'NONE', #16, 1.499999999999995337 ) ;
#171 = FACE_OUTER_BOUND ( 'NONE', #9, .T. ) ;
#172 = ADVANCED_FACE ( 'NONE', ( #88 ), #29, .T. ) ;
#173 = FACE_OUTER_BOUND ( 'NONE', #164, .T. ) ;
#174 = CIRCLE ( 'NONE', #142, 1.588999999999999746 ) ;
#175 = VERTEX_POINT ( 'NONE', #111 ) ;
#176 = EDGE_CURVE ( 'NONE', #151, #151, #102, .T. ) ;
#177 = PERSON_AND_ORGANIZATION_ROLE ( 'creator' ) ;
#178 = DATE_AND_TIME ( #93, #188 ) ;
#179 = COORDINATED_UNIVERSAL_TIME_OFFSET ( 1, 0, .AHEAD. ) ;
#180 = ORIENTED_EDGE ( 'NONE', *, *, #229, .F. ) ;
#181 = APPROVAL_PERSON_ORGANIZATION ( #125, #167, #145 ) ;
#182 = ORIENTED_EDGE ( 'NONE', *, *, #176, .F. ) ;
#183 = AXIS2_PLACEMENT_3D ( 'NONE', #50, #103, #106 ) ;
#184 = AXIS2_PLACEMENT_3D ( 'NONE', #240, #146, #57 ) ;
#185 = DIRECTION ( 'NONE',  ( -3.491481338843133355E-15, 1.049697256412017316E-16, -1.000000000000000000 ) ) ;
#186 = DIRECTION ( 'NONE',  ( -3.491481338843133355E-15, -5.394987251931983694E-16, -1.000000000000000000 ) ) ;
#187 = FACE_OUTER_BOUND ( 'NONE', #166, .T. ) ;
#188 = LOCAL_TIME ( 14, 1, 31.00000000000000000, #179 ) ;
#189 = DIRECTION ( 'NONE',  ( 0.0000000000000000000, 1.000000000000000000, 0.0000000000000000000 ) ) ;
#190 = DIRECTION ( 'NONE',  ( -3.491481338843133355E-15, 1.049697256412017316E-16, -1.000000000000000000 ) ) ;
#191 = DIRECTION ( 'NONE',  ( 3.491481338843133355E-15, 5.394987251931983694E-16, 1.000000000000000000 ) ) ;
#192 = CC_DESIGN_APPROVAL ( #195, ( #41 ) ) ;
#193 = FACE_BOUND ( 'NONE', #228, .T. ) ;
#194 = CIRCLE ( 'NONE', #85, 1.588999999999998414 ) ;
#195 = APPROVAL ( #82, 'UNSPECIFIED' ) ;
#196 = ORIENTED_EDGE ( 'NONE', *, *, #95, .F. ) ;
#197 = EDGE_CURVE ( 'NONE', #130, #130, #139, .T. ) ;
#198 = PERSON ( 'UNSPECIFIED', 'UNSPECIFIED', 'UNSPECIFIED', ('UNSPECIFIED'), ('UNSPECIFIED'), ('UNSPECIFIED') ) ;
#199 = EDGE_CURVE ( 'NONE', #175, #175, #74, .T. ) ;
#200 = CARTESIAN_POINT ( 'NONE',  ( 3.869445280877825814E-14, -1.163330317703974832E-15, 11.08253175473057794 ) ) ;
#201 = PRODUCT ( '321221', '321221', '', ( #22 ) ) ;
#202 = EDGE_LOOP ( 'NONE', ( #230 ) ) ;
#203 = APPROVAL_STATUS ( 'not_yet_approved' ) ;
#204 = CARTESIAN_POINT ( 'NONE',  ( 2.433562493173664138E-13, -7.316389877191761450E-15, 69.70000000000001705 ) ) ;
#205 = EDGE_LOOP ( 'NONE', ( #182 ) ) ;
#206 = EDGE_LOOP ( 'NONE', ( #180 ) ) ;
#207 = CIRCLE ( 'NONE', #147, 1.499999999999992673 ) ;
#208 = CARTESIAN_POINT ( 'NONE',  ( 3.815623215532083207E-14, -1.147148969775999102E-15, 10.92837923285693513 ) ) ;
#209 = CC_DESIGN_PERSON_AND_ORGANIZATION_ASSIGNMENT ( #137, #45, ( #32 ) ) ;
#210 = LOCAL_TIME ( 14, 1, 31.00000000000000000, #158 ) ;
#211 = PERSON_AND_ORGANIZATION_ROLE ( 'design_owner' ) ;
#212 = APPROVAL_ROLE ( '' ) ;
#213 = APPROVAL_ROLE ( '' ) ;
#214 = PERSON_AND_ORGANIZATION ( #198, #21 ) ;
#215 = ADVANCED_FACE ( 'NONE', ( #171, #193 ), #84, .T. ) ;
#216 = DIRECTION ( 'NONE',  ( -3.491481338843133355E-15, -5.394987251931983694E-16, -1.000000000000000000 ) ) ;
#217 = CYLINDRICAL_SURFACE ( 'NONE', #26, 1.588999999999995527 ) ;
#218 = AXIS2_PLACEMENT_3D ( 'NONE', #105, #48, #189 ) ;
#219 = LOCAL_TIME ( 14, 1, 31.00000000000000000, #117 ) ;
#220 = APPLICATION_CONTEXT ( 'configuration controlled 3d designs of mechanical parts and assemblies' ) ;
#221 = PLANE ( 'NONE',  #58 ) ;
#222 = FACE_BOUND ( 'NONE', #19, .T. ) ;
#223 = CARTESIAN_POINT ( 'NONE',  ( 0.0000000000000000000, 0.0000000000000000000, 0.0000000000000000000 ) ) ;
#224 = CONICAL_SURFACE ( 'NONE', #42, 1.588999999999999746, 0.5235987755982977054 ) ;
#225 = AXIS2_PLACEMENT_3D ( 'NONE', #126, #235, #140 ) ;
#226 = VERTEX_POINT ( 'NONE', #242 ) ;
#227 = DIRECTION ( 'NONE',  ( 0.0000000000000000000, 1.000000000000000000, 0.0000000000000000000 ) ) ;
#228 = EDGE_LOOP ( 'NONE', ( #196 ) ) ;
#229 = EDGE_CURVE ( 'NONE', #133, #133, #174, .T. ) ;
#230 = ORIENTED_EDGE ( 'NONE', *, *, #95, .T. ) ;
#231 = PERSON_AND_ORGANIZATION ( #198, #21 ) ;
#232 = ORIENTED_EDGE ( 'NONE', *, *, #12, .F. ) ;
#233 = CC_DESIGN_SECURITY_CLASSIFICATION ( #79, ( #32 ) ) ;
#234 = ORIENTED_EDGE ( 'NONE', *, *, #176, .T. ) ;
#235 = DIRECTION ( 'NONE',  ( -3.491481338843133355E-15, 1.049697256412017316E-16, -1.000000000000000000 ) ) ;
#236 = CARTESIAN_POINT ( 'NONE',  ( 2.444036937190193601E-13, -7.347880794884121511E-15, 70.00000000000000000 ) ) ;
#237 = ADVANCED_FACE ( 'NONE', ( #173 ), #77, .T. ) ;
#238 = CARTESIAN_POINT ( 'NONE',  ( -1.455255792939009211E-30, 1.444662432702592536, -4.168018247009142890E-16 ) ) ;
#239 = COORDINATED_UNIVERSAL_TIME_OFFSET ( 1, 0, .AHEAD. ) ;
#240 = CARTESIAN_POINT ( 'NONE',  ( 2.444036937190193601E-13, -7.347880794884121511E-15, 70.00000000000000000 ) ) ;
#241 = DIRECTION ( 'NONE',  ( 3.491481338843133355E-15, 5.394987251931983694E-16, 1.000000000000000000 ) ) ;
#242 = CARTESIAN_POINT ( 'NONE',  ( -1.892735826383161356E-31, 1.444662432702592536, -5.421010862427522170E-17 ) ) ;
#243 = CALENDAR_DATE ( 2021, 26, 11 ) ;
ENDSEC;
END-ISO-10303-21;
