ISO-10303-21;
HEADER;
FILE_DESCRIPTION (( 'STEP AP203' ),
    '1' );
FILE_NAME ('321220.step',
    '2021-11-26T13:01:30',
    ( '' ),
    ( '' ),
    'SwSTEP 2.0',
    'SolidWorks 2019',
    '' );
FILE_SCHEMA (( 'CONFIG_CONTROL_DESIGN' ));
ENDSEC;

DATA;
#1 = LOCAL_TIME ( 14, 1, 30.00000000000000000, #161 ) ;
#2 = DIRECTION ( 'NONE',  ( 0.0000000000000000000, 1.000000000000000000, 0.0000000000000000000 ) ) ;
#3 = VERTEX_POINT ( 'NONE', #231 ) ;
#4 = DIRECTION ( 'NONE',  ( -3.491481338843133355E-15, 1.049697256412017316E-16, -1.000000000000000000 ) ) ;
#5 = MANIFOLD_SOLID_BREP ( 'Corps-Déplacer/Copier1[2]', #166 ) ;
#6 = PLANE ( 'NONE',  #178 ) ;
#7 = PERSON_AND_ORGANIZATION_ROLE ( 'creator' ) ;
#8 = APPROVAL ( #167, 'UNSPECIFIED' ) ;
#9 = CARTESIAN_POINT ( 'NONE',  ( 3.818646927068359450E-14, 1.583999999999998742, 10.93703948689477912 ) ) ;
#10 = PERSON_AND_ORGANIZATION_ROLE ( 'classification_officer' ) ;
#11 =( NAMED_UNIT ( * ) SI_UNIT ( $, .STERADIAN. ) SOLID_ANGLE_UNIT ( ) );
#12 = PRODUCT_DEFINITION_SHAPE ( 'NONE', 'NONE',  #59 ) ;
#13 = LOCAL_TIME ( 14, 1, 30.00000000000000000, #88 ) ;
#14 = AXIS2_PLACEMENT_3D ( 'NONE', #172, #82, #86 ) ;
#15 = FACE_OUTER_BOUND ( 'NONE', #36, .T. ) ;
#16 = CC_DESIGN_PERSON_AND_ORGANIZATION_ASSIGNMENT ( #29, #202, ( #182 ) ) ;
#17 = APPLICATION_CONTEXT ( 'configuration controlled 3d designs of mechanical parts and assemblies' ) ;
#18 = EDGE_LOOP ( 'NONE', ( #132 ) ) ;
#19 = LOCAL_TIME ( 14, 1, 30.00000000000000000, #204 ) ;
#20 = CC_DESIGN_DATE_AND_TIME_ASSIGNMENT ( #151, #188, ( #144 ) ) ;
#21 = ORIENTED_EDGE ( 'NONE', *, *, #207, .F. ) ;
#22 = DIRECTION ( 'NONE',  ( 3.491481338843133355E-15, -1.049697256412017316E-16, 1.000000000000000000 ) ) ;
#23 = DIRECTION ( 'NONE',  ( 1.881481060146087701E-30, -1.000000000000000000, 5.388775930761516931E-16 ) ) ;
#24 = CC_DESIGN_DATE_AND_TIME_ASSIGNMENT ( #46, #205, ( #59 ) ) ;
#25 = CARTESIAN_POINT ( 'NONE',  ( 2.433562493173664138E-13, -7.316389877191761450E-15, 69.70000000000001705 ) ) ;
#26 = CARTESIAN_POINT ( 'NONE',  ( 8.728703347107833388E-16, 1.583999999999998742, 0.2499999999999999445 ) ) ;
#27 = CYLINDRICAL_SURFACE ( 'NONE', #158, 1.499999999999995337 ) ;
#28 = PERSON_AND_ORGANIZATION ( #76, #114 ) ;
#29 = PERSON_AND_ORGANIZATION ( #76, #114 ) ;
#30 = PERSON_AND_ORGANIZATION_ROLE ( 'design_supplier' ) ;
#31 = ADVANCED_BREP_SHAPE_REPRESENTATION ( '321220', ( #90, #5, #159 ), #157 ) ;
#32 = CARTESIAN_POINT ( 'NONE',  ( 3.818646927068359450E-14, 1.583999999999998742, 10.93703948689477912 ) ) ;
#33 = AXIS2_PLACEMENT_3D ( 'NONE', #141, #121, #196 ) ;
#34 = APPROVAL_ROLE ( '' ) ;
#35 = SHAPE_DEFINITION_REPRESENTATION ( #12, #31 ) ;
#36 = EDGE_LOOP ( 'NONE', ( #221 ) ) ;
#37 = EDGE_LOOP ( 'NONE', ( #111 ) ) ;
#38 = ORIENTED_EDGE ( 'NONE', *, *, #147, .T. ) ;
#39 = CC_DESIGN_APPROVAL ( #50, ( #59 ) ) ;
#40 = FACE_OUTER_BOUND ( 'NONE', #192, .T. ) ;
#41 = FACE_OUTER_BOUND ( 'NONE', #239, .T. ) ;
#42 = CLOSED_SHELL ( 'NONE', ( #169, #234, #138, #134, #142 ) ) ;
#43 = DIRECTION ( 'NONE',  ( -3.491481338843133355E-15, -5.388775930761516931E-16, -1.000000000000000000 ) ) ;
#44 = DIRECTION ( 'NONE',  ( -1.881481060146087351E-30, 1.000000000000000000, -5.388775930761516931E-16 ) ) ;
#45 = CC_DESIGN_PERSON_AND_ORGANIZATION_ASSIGNMENT ( #235, #30, ( #93 ) ) ;
#46 = DATE_AND_TIME ( #87, #106 ) ;
#47 = APPROVAL_PERSON_ORGANIZATION ( #110, #50, #181 ) ;
#48 = PERSON_AND_ORGANIZATION ( #76, #114 ) ;
#49 = CIRCLE ( 'NONE', #186, 1.583999999999999853 ) ;
#50 = APPROVAL ( #165, 'UNSPECIFIED' ) ;
#51 = APPROVAL_STATUS ( 'not_yet_approved' ) ;
#52 = VERTEX_POINT ( 'NONE', #164 ) ;
#53 = CC_DESIGN_APPROVAL ( #8, ( #144 ) ) ;
#54 =( NAMED_UNIT ( * ) PLANE_ANGLE_UNIT ( ) SI_UNIT ( $, .RADIAN. ) );
#55 = CIRCLE ( 'NONE', #98, 1.499999999999997558 ) ;
#56 = ADVANCED_FACE ( 'NONE', ( #97, #128 ), #240, .T. ) ;
#57 = ORIENTED_EDGE ( 'NONE', *, *, #222, .T. ) ;
#58 = APPROVAL_PERSON_ORGANIZATION ( #220, #8, #133 ) ;
#59 = PRODUCT_DEFINITION ( 'UNKNOWN', '', #93, #78 ) ;
#60 = ORIENTED_EDGE ( 'NONE', *, *, #190, .T. ) ;
#61 = CC_DESIGN_APPROVAL ( #91, ( #93 ) ) ;
#62 = CARTESIAN_POINT ( 'NONE',  ( 3.818646927068360081E-14, 1.583999999999998742, 10.93703948689478089 ) ) ;
#63 = DIRECTION ( 'NONE',  ( 3.664998382197393967E-31, 1.000000000000000000, 1.049697256412017316E-16 ) ) ;
#64 = DIRECTION ( 'NONE',  ( -3.491481338843133355E-15, 1.049697256412017316E-16, -1.000000000000000000 ) ) ;
#65 = FACE_BOUND ( 'NONE', #100, .T. ) ;
#66 = DATE_AND_TIME ( #109, #19 ) ;
#67 =( LENGTH_UNIT ( ) NAMED_UNIT ( * ) SI_UNIT ( .MILLI., .METRE. ) );
#68 = ADVANCED_FACE ( 'NONE', ( #225, #15 ), #95, .T. ) ;
#69 = VERTEX_POINT ( 'NONE', #237 ) ;
#70 = APPROVAL_PERSON_ORGANIZATION ( #28, #91, #34 ) ;
#71 = CIRCLE ( 'NONE', #210, 1.199999999999997513 ) ;
#72 = EDGE_LOOP ( 'NONE', ( #170 ) ) ;
#73 = COORDINATED_UNIVERSAL_TIME_OFFSET ( 1, 0, .AHEAD. ) ;
#74 = ORIENTED_EDGE ( 'NONE', *, *, #222, .F. ) ;
#75 = EDGE_LOOP ( 'NONE', ( #189 ) ) ;
#76 = PERSON ( 'UNSPECIFIED', 'UNSPECIFIED', 'UNSPECIFIED', ('UNSPECIFIED'), ('UNSPECIFIED'), ('UNSPECIFIED') ) ;
#77 = AXIS2_PLACEMENT_3D ( 'NONE', #115, #208, #44 ) ;
#78 = DESIGN_CONTEXT ( 'detailed design', #203, 'design' ) ;
#79 = EDGE_LOOP ( 'NONE', ( #150 ) ) ;
#80 = CARTESIAN_POINT ( 'NONE',  ( 3.818646927068360081E-14, 5.893725514076688445E-15, 10.93703948689478089 ) ) ;
#81 = AXIS2_PLACEMENT_3D ( 'NONE', #160, #43, #233 ) ;
#82 = DIRECTION ( 'NONE',  ( -3.491481338843133355E-15, -5.388775930761516931E-16, -1.000000000000000000 ) ) ;
#83 = PLANE ( 'NONE',  #136 ) ;
#84 = DIRECTION ( 'NONE',  ( 0.0000000000000000000, 1.000000000000000000, 0.0000000000000000000 ) ) ;
#85 = CONICAL_SURFACE ( 'NONE', #33, 1.583999999999999853, 0.5235987755982959291 ) ;
#86 = DIRECTION ( 'NONE',  ( -1.881481060146087351E-30, 1.000000000000000000, -5.388775930761516931E-16 ) ) ;
#87 = CALENDAR_DATE ( 2021, 26, 11 ) ;
#88 = COORDINATED_UNIVERSAL_TIME_OFFSET ( 1, 0, .AHEAD. ) ;
#89 = APPLICATION_PROTOCOL_DEFINITION ( 'international standard', 'config_control_design', 1994, #17 ) ;
#90 = MANIFOLD_SOLID_BREP ( 'Corps-Déplacer/Copier1[1]', #42 ) ;
#91 = APPROVAL ( #51, 'UNSPECIFIED' ) ;
#92 = VERTEX_POINT ( 'NONE', #9 ) ;
#93 = PRODUCT_DEFINITION_FORMATION_WITH_SPECIFIED_SOURCE ( 'ANY', '', #182, .NOT_KNOWN. ) ;
#94 = AXIS2_PLACEMENT_3D ( 'NONE', #153, #173, #228 ) ;
#95 = CYLINDRICAL_SURFACE ( 'NONE', #77, 1.583999999999995856 ) ;
#96 = CC_DESIGN_PERSON_AND_ORGANIZATION_ASSIGNMENT ( #201, #10, ( #144 ) ) ;
#97 = FACE_OUTER_BOUND ( 'NONE', #238, .T. ) ;
#98 = AXIS2_PLACEMENT_3D ( 'NONE', #212, #215, #198 ) ;
#99 = UNCERTAINTY_MEASURE_WITH_UNIT (LENGTH_MEASURE( 1.000000000000000082E-05 ), #67, 'distance_accuracy_value', 'NONE');
#100 = EDGE_LOOP ( 'NONE', ( #60 ) ) ;
#101 = DIRECTION ( 'NONE',  ( -3.664998382197393967E-31, -1.000000000000000000, -1.049697256412017316E-16 ) ) ;
#102 = CARTESIAN_POINT ( 'NONE',  ( 2.444036937190193601E-13, -7.347880794884121511E-15, 70.00000000000000000 ) ) ;
#103 = DIRECTION ( 'NONE',  ( -3.491481338843133355E-15, 1.049697256412017316E-16, -1.000000000000000000 ) ) ;
#104 = DIRECTION ( 'NONE',  ( 3.664998382197393967E-31, 1.000000000000000000, 1.049697256412017316E-16 ) ) ;
#105 = DIRECTION ( 'NONE',  ( -3.491481338843133355E-15, 1.049697256412017316E-16, -1.000000000000000000 ) ) ;
#106 = LOCAL_TIME ( 14, 1, 30.00000000000000000, #183 ) ;
#107 = DIRECTION ( 'NONE',  ( 1.000000000000000000, 0.0000000000000000000, 0.0000000000000000000 ) ) ;
#108 = SECURITY_CLASSIFICATION_LEVEL ( 'unclassified' ) ;
#109 = CALENDAR_DATE ( 2021, 26, 11 ) ;
#110 = PERSON_AND_ORGANIZATION ( #76, #114 ) ;
#111 = ORIENTED_EDGE ( 'NONE', *, *, #190, .F. ) ;
#112 = ADVANCED_FACE ( 'NONE', ( #232 ), #156, .T. ) ;
#113 = CALENDAR_DATE ( 2021, 26, 11 ) ;
#114 = ORGANIZATION ( 'UNSPECIFIED', 'UNSPECIFIED', '' ) ;
#115 = CARTESIAN_POINT ( 'NONE',  ( 0.0000000000000000000, 0.0000000000000000000, 0.0000000000000000000 ) ) ;
#116 = AXIS2_PLACEMENT_3D ( 'NONE', #80, #195, #23 ) ;
#117 = FACE_OUTER_BOUND ( 'NONE', #37, .T. ) ;
#118 = FACE_OUTER_BOUND ( 'NONE', #187, .T. ) ;
#119 = FACE_BOUND ( 'NONE', #79, .T. ) ;
#120 = DIRECTION ( 'NONE',  ( -1.881481060146087701E-30, 1.000000000000000000, -5.388775930761516931E-16 ) ) ;
#121 = DIRECTION ( 'NONE',  ( -3.491481338843133355E-15, 1.049697256412017316E-16, -1.000000000000000000 ) ) ;
#122 = CARTESIAN_POINT ( 'NONE',  ( 2.444036937190193601E-13, 1.199999999999990186, 70.00000000000000000 ) ) ;
#123 = CIRCLE ( 'NONE', #149, 1.583999999999998520 ) ;
#124 = PERSON_AND_ORGANIZATION_ROLE ( 'creator' ) ;
#125 = APPLICATION_PROTOCOL_DEFINITION ( 'international standard', 'config_control_design', 1994, #203 ) ;
#126 = EDGE_CURVE ( 'NONE', #3, #3, #55, .T. ) ;
#127 = APPROVAL_DATE_TIME ( #185, #8 ) ;
#128 = FACE_BOUND ( 'NONE', #75, .T. ) ;
#129 = AXIS2_PLACEMENT_3D ( 'NONE', #25, #103, #175 ) ;
#130 = ORIENTED_EDGE ( 'NONE', *, *, #126, .T. ) ;
#131 = CALENDAR_DATE ( 2021, 26, 11 ) ;
#132 = ORIENTED_EDGE ( 'NONE', *, *, #126, .F. ) ;
#133 = APPROVAL_ROLE ( '' ) ;
#134 = ADVANCED_FACE ( 'NONE', ( #65, #118 ), #85, .T. ) ;
#135 = CARTESIAN_POINT ( 'NONE',  ( -1.448985591386042721E-30, 1.439662432702592643, -4.150059676006027894E-16 ) ) ;
#136 = AXIS2_PLACEMENT_3D ( 'NONE', #62, #105, #63 ) ;
#137 = DIRECTION ( 'NONE',  ( -3.491481338843133355E-15, 1.049697256412017316E-16, -1.000000000000000000 ) ) ;
#138 = ADVANCED_FACE ( 'NONE', ( #41, #117 ), #27, .T. ) ;
#139 = FACE_OUTER_BOUND ( 'NONE', #226, .T. ) ;
#140 = CARTESIAN_POINT ( 'NONE',  ( 8.728703347107862970E-16, 1.347193982690383670E-16, 0.2500000000000008327 ) ) ;
#141 = CARTESIAN_POINT ( 'NONE',  ( 3.818646927068359450E-14, -1.148058034266334629E-15, 10.93703948689477912 ) ) ;
#142 = ADVANCED_FACE ( 'NONE', ( #154 ), #83, .T. ) ;
#143 = CARTESIAN_POINT ( 'NONE',  ( 0.0000000000000000000, 0.0000000000000000000, 0.0000000000000000000 ) ) ;
#144 = SECURITY_CLASSIFICATION ( '', '', #108 ) ;
#145 = CIRCLE ( 'NONE', #14, 1.439662432702592643 ) ;
#146 = DATE_AND_TIME ( #236, #1 ) ;
#147 = EDGE_CURVE ( 'NONE', #197, #197, #123, .T. ) ;
#148 = PERSON_AND_ORGANIZATION ( #76, #114 ) ;
#149 = AXIS2_PLACEMENT_3D ( 'NONE', #140, #211, #177 ) ;
#150 = ORIENTED_EDGE ( 'NONE', *, *, #174, .T. ) ;
#151 = DATE_AND_TIME ( #113, #13 ) ;
#152 = CARTESIAN_POINT ( 'NONE',  ( 2.519424017495452864E-30, 3.888496081540121449E-31, 7.215917179526551355E-16 ) ) ;
#153 = CARTESIAN_POINT ( 'NONE',  ( 3.869445280877825814E-14, -1.163330317703974832E-15, 11.08253175473057794 ) ) ;
#154 = FACE_OUTER_BOUND ( 'NONE', #72, .T. ) ;
#155 = FACE_OUTER_BOUND ( 'NONE', #18, .T. ) ;
#156 = PLANE ( 'NONE',  #116 ) ;
#157 =( GEOMETRIC_REPRESENTATION_CONTEXT ( 3 ) GLOBAL_UNCERTAINTY_ASSIGNED_CONTEXT ( ( #99 ) ) GLOBAL_UNIT_ASSIGNED_CONTEXT ( ( #67, #54, #11 ) ) REPRESENTATION_CONTEXT ( 'NONE', 'WORKASPACE' ) );
#158 = AXIS2_PLACEMENT_3D ( 'NONE', #193, #64, #104 ) ;
#159 = AXIS2_PLACEMENT_3D ( 'NONE', #143, #163, #107 ) ;
#160 = CARTESIAN_POINT ( 'NONE',  ( 3.818646927068359450E-14, 5.893725514076687656E-15, 10.93703948689477912 ) ) ;
#161 = COORDINATED_UNIVERSAL_TIME_OFFSET ( 1, 0, .AHEAD. ) ;
#162 = LOCAL_TIME ( 14, 1, 30.00000000000000000, #73 ) ;
#163 = DIRECTION ( 'NONE',  ( 0.0000000000000000000, 0.0000000000000000000, 1.000000000000000000 ) ) ;
#164 = CARTESIAN_POINT ( 'NONE',  ( 3.869445280877825814E-14, 1.499999999999991562, 11.08253175473057794 ) ) ;
#165 = APPROVAL_STATUS ( 'not_yet_approved' ) ;
#166 = CLOSED_SHELL ( 'NONE', ( #112, #68, #56, #230 ) ) ;
#167 = APPROVAL_STATUS ( 'not_yet_approved' ) ;
#168 = DIRECTION ( 'NONE',  ( 3.491481338843133355E-15, 5.388775930761516931E-16, 1.000000000000000000 ) ) ;
#169 = ADVANCED_FACE ( 'NONE', ( #40 ), #6, .T. ) ;
#170 = ORIENTED_EDGE ( 'NONE', *, *, #207, .T. ) ;
#171 = EDGE_LOOP ( 'NONE', ( #57 ) ) ;
#172 = CARTESIAN_POINT ( 'NONE',  ( 2.519424017495452864E-30, 3.888496081540121449E-31, 7.215917179526551355E-16 ) ) ;
#173 = DIRECTION ( 'NONE',  ( -3.491481338843133355E-15, 1.049697256412017316E-16, -1.000000000000000000 ) ) ;
#174 = EDGE_CURVE ( 'NONE', #176, #176, #71, .T. ) ;
#175 = DIRECTION ( 'NONE',  ( 0.0000000000000000000, 1.000000000000000000, 0.0000000000000000000 ) ) ;
#176 = VERTEX_POINT ( 'NONE', #122 ) ;
#177 = DIRECTION ( 'NONE',  ( -1.823797295821247878E-30, 1.000000000000000000, -5.475768547906592812E-16 ) ) ;
#178 = AXIS2_PLACEMENT_3D ( 'NONE', #102, #22, #101 ) ;
#179 = MECHANICAL_CONTEXT ( 'NONE', #17, 'mechanical' ) ;
#180 = CC_DESIGN_PERSON_AND_ORGANIZATION_ASSIGNMENT ( #48, #124, ( #93 ) ) ;
#181 = APPROVAL_ROLE ( '' ) ;
#182 = PRODUCT ( '321220', '321220', '', ( #179 ) ) ;
#183 = COORDINATED_UNIVERSAL_TIME_OFFSET ( 1, 0, .AHEAD. ) ;
#184 = CC_DESIGN_PERSON_AND_ORGANIZATION_ASSIGNMENT ( #148, #7, ( #59 ) ) ;
#185 = DATE_AND_TIME ( #131, #162 ) ;
#186 = AXIS2_PLACEMENT_3D ( 'NONE', #243, #137, #84 ) ;
#187 = EDGE_LOOP ( 'NONE', ( #21 ) ) ;
#188 = DATE_TIME_ROLE ( 'classification_date' ) ;
#189 = ORIENTED_EDGE ( 'NONE', *, *, #194, .F. ) ;
#190 = EDGE_CURVE ( 'NONE', #52, #52, #200, .T. ) ;
#191 = ORIENTED_EDGE ( 'NONE', *, *, #194, .T. ) ;
#192 = EDGE_LOOP ( 'NONE', ( #224 ) ) ;
#193 = CARTESIAN_POINT ( 'NONE',  ( 0.0000000000000000000, 0.0000000000000000000, 0.0000000000000000000 ) ) ;
#194 = EDGE_CURVE ( 'NONE', #69, #69, #145, .T. ) ;
#195 = DIRECTION ( 'NONE',  ( 3.491481338843133355E-15, 5.388775930761516931E-16, 1.000000000000000000 ) ) ;
#196 = DIRECTION ( 'NONE',  ( 0.0000000000000000000, 1.000000000000000000, 0.0000000000000000000 ) ) ;
#197 = VERTEX_POINT ( 'NONE', #26 ) ;
#198 = DIRECTION ( 'NONE',  ( 0.0000000000000000000, 1.000000000000000000, 0.0000000000000000000 ) ) ;
#199 = AXIS2_PLACEMENT_3D ( 'NONE', #135, #213, #120 ) ;
#200 = CIRCLE ( 'NONE', #94, 1.499999999999992673 ) ;
#201 = PERSON_AND_ORGANIZATION ( #76, #114 ) ;
#202 = PERSON_AND_ORGANIZATION_ROLE ( 'design_owner' ) ;
#203 = APPLICATION_CONTEXT ( 'configuration controlled 3d designs of mechanical parts and assemblies' ) ;
#204 = COORDINATED_UNIVERSAL_TIME_OFFSET ( 1, 0, .AHEAD. ) ;
#205 = DATE_TIME_ROLE ( 'creation_date' ) ;
#206 = CIRCLE ( 'NONE', #81, 1.583999999999992969 ) ;
#207 = EDGE_CURVE ( 'NONE', #219, #219, #49, .T. ) ;
#208 = DIRECTION ( 'NONE',  ( -3.491481338843133355E-15, -5.388775930761516931E-16, -1.000000000000000000 ) ) ;
#209 = CC_DESIGN_SECURITY_CLASSIFICATION ( #144, ( #93 ) ) ;
#210 = AXIS2_PLACEMENT_3D ( 'NONE', #214, #4, #2 ) ;
#211 = DIRECTION ( 'NONE',  ( -3.491481338843133355E-15, -5.388775930761516931E-16, -1.000000000000000000 ) ) ;
#212 = CARTESIAN_POINT ( 'NONE',  ( 2.433562493173664138E-13, -7.316389877191761450E-15, 69.70000000000001705 ) ) ;
#213 = DIRECTION ( 'NONE',  ( -3.491481338843133355E-15, -5.388775930761516931E-16, -1.000000000000000000 ) ) ;
#214 = CARTESIAN_POINT ( 'NONE',  ( 2.444036937190193601E-13, -7.347880794884121511E-15, 70.00000000000000000 ) ) ;
#215 = DIRECTION ( 'NONE',  ( -3.491481338843133355E-15, 1.049697256412017316E-16, -1.000000000000000000 ) ) ;
#216 = APPROVAL_DATE_TIME ( #146, #91 ) ;
#217 = APPROVAL_DATE_TIME ( #66, #50 ) ;
#218 = CONICAL_SURFACE ( 'NONE', #129, 1.499999999999997558, 0.7853981633974573828 ) ;
#219 = VERTEX_POINT ( 'NONE', #32 ) ;
#220 = PERSON_AND_ORGANIZATION ( #76, #114 ) ;
#221 = ORIENTED_EDGE ( 'NONE', *, *, #147, .F. ) ;
#222 = EDGE_CURVE ( 'NONE', #92, #92, #206, .T. ) ;
#223 = DIRECTION ( 'NONE',  ( 1.881481060146087351E-30, -1.000000000000000000, 5.388775930761516931E-16 ) ) ;
#224 = ORIENTED_EDGE ( 'NONE', *, *, #174, .F. ) ;
#225 = FACE_OUTER_BOUND ( 'NONE', #171, .T. ) ;
#226 = EDGE_LOOP ( 'NONE', ( #191 ) ) ;
#227 = AXIS2_PLACEMENT_3D ( 'NONE', #152, #168, #223 ) ;
#228 = DIRECTION ( 'NONE',  ( 0.0000000000000000000, 1.000000000000000000, 0.0000000000000000000 ) ) ;
#229 = PLANE ( 'NONE',  #199 ) ;
#230 = ADVANCED_FACE ( 'NONE', ( #139 ), #229, .T. ) ;
#231 = CARTESIAN_POINT ( 'NONE',  ( 2.433562493173664138E-13, 1.499999999999990230, 69.70000000000001705 ) ) ;
#232 = FACE_OUTER_BOUND ( 'NONE', #241, .T. ) ;
#233 = DIRECTION ( 'NONE',  ( 0.0000000000000000000, 1.000000000000000000, 0.0000000000000000000 ) ) ;
#234 = ADVANCED_FACE ( 'NONE', ( #119, #155 ), #218, .T. ) ;
#235 = PERSON_AND_ORGANIZATION ( #76, #114 ) ;
#236 = CALENDAR_DATE ( 2021, 26, 11 ) ;
#237 = CARTESIAN_POINT ( 'NONE',  ( -1.892735826383161356E-31, 1.439662432702592643, -5.421010862427522170E-17 ) ) ;
#238 = EDGE_LOOP ( 'NONE', ( #38 ) ) ;
#239 = EDGE_LOOP ( 'NONE', ( #130 ) ) ;
#240 = CONICAL_SURFACE ( 'NONE', #227, 1.439662432702592643, 0.5235987755982970393 ) ;
#241 = EDGE_LOOP ( 'NONE', ( #74 ) ) ;
#242 = PRODUCT_RELATED_PRODUCT_CATEGORY ( 'detail', '', ( #182 ) ) ;
#243 = CARTESIAN_POINT ( 'NONE',  ( 3.818646927068359450E-14, -1.148058034266334629E-15, 10.93703948689477912 ) ) ;
ENDSEC;
END-ISO-10303-21;
