ISO-10303-21;
HEADER;
FILE_DESCRIPTION (( 'STEP AP203' ),
    '1' );
FILE_NAME ('321219.step',
    '2021-11-26T13:01:30',
    ( '' ),
    ( '' ),
    'SwSTEP 2.0',
    'SolidWorks 2019',
    '' );
FILE_SCHEMA (( 'CONFIG_CONTROL_DESIGN' ));
ENDSEC;

DATA;
#1 = CONICAL_SURFACE ( 'NONE', #64, 1.578999999999999737, 0.5235987755982970393 ) ;
#2 = ORIENTED_EDGE ( 'NONE', *, *, #57, .F. ) ;
#3 = PERSON_AND_ORGANIZATION_ROLE ( 'classification_officer' ) ;
#4 = DATE_TIME_ROLE ( 'classification_date' ) ;
#5 = ORIENTED_EDGE ( 'NONE', *, *, #8, .T. ) ;
#6 = MANIFOLD_SOLID_BREP ( 'Corps-Déplacer/Copier1[1]', #40 ) ;
#7 = APPROVAL_DATE_TIME ( #194, #230 ) ;
#8 = EDGE_CURVE ( 'NONE', #239, #239, #180, .T. ) ;
#9 = CYLINDRICAL_SURFACE ( 'NONE', #229, 1.578999999999995518 ) ;
#10 = CYLINDRICAL_SURFACE ( 'NONE', #20, 1.499999999999995337 ) ;
#11 = FACE_OUTER_BOUND ( 'NONE', #213, .T. ) ;
#12 = ADVANCED_FACE ( 'NONE', ( #220 ), #108, .T. ) ;
#13 = CARTESIAN_POINT ( 'NONE',  ( 3.821670638604637585E-14, 1.578999999999998627, 10.94569974093262488 ) ) ;
#14 = DIRECTION ( 'NONE',  ( 3.664998382197393967E-31, 1.000000000000000000, 1.049697256412017316E-16 ) ) ;
#15 = PERSON_AND_ORGANIZATION_ROLE ( 'creator' ) ;
#16 = CIRCLE ( 'NONE', #154, 1.434662432702592527 ) ;
#17 = PRODUCT_RELATED_PRODUCT_CATEGORY ( 'detail', '', ( #25 ) ) ;
#18 =( NAMED_UNIT ( * ) SI_UNIT ( $, .STERADIAN. ) SOLID_ANGLE_UNIT ( ) );
#19 = CARTESIAN_POINT ( 'NONE',  ( 3.821670638604637585E-14, 1.578999999999998627, 10.94569974093262488 ) ) ;
#20 = AXIS2_PLACEMENT_3D ( 'NONE', #51, #148, #204 ) ;
#21 = ADVANCED_FACE ( 'NONE', ( #185, #69 ), #10, .T. ) ;
#22 = VERTEX_POINT ( 'NONE', #138 ) ;
#23 = ORIENTED_EDGE ( 'NONE', *, *, #160, .F. ) ;
#24 = CALENDAR_DATE ( 2021, 26, 11 ) ;
#25 = PRODUCT ( '321219', '321219', '', ( #173 ) ) ;
#26 = APPROVAL_ROLE ( '' ) ;
#27 = CALENDAR_DATE ( 2021, 26, 11 ) ;
#28 = AXIS2_PLACEMENT_3D ( 'NONE', #202, #144, #182 ) ;
#29 = DIRECTION ( 'NONE',  ( -3.491481338843133355E-15, -5.382574438404291575E-16, -1.000000000000000000 ) ) ;
#30 = PLANE ( 'NONE',  #45 ) ;
#31 = CARTESIAN_POINT ( 'NONE',  ( -1.442728694863054592E-30, 1.434662432702592527, -4.132139212123321849E-16 ) ) ;
#32 = DIRECTION ( 'NONE',  ( -3.664998382197393967E-31, -1.000000000000000000, -1.049697256412017316E-16 ) ) ;
#33 = CC_DESIGN_APPROVAL ( #43, ( #36 ) ) ;
#34 = DIRECTION ( 'NONE',  ( 1.879315820662263805E-30, -1.000000000000000000, 5.382574438404291575E-16 ) ) ;
#35 = DATE_AND_TIME ( #61, #240 ) ;
#36 = PRODUCT_DEFINITION_FORMATION_WITH_SPECIFIED_SOURCE ( 'ANY', '', #25, .NOT_KNOWN. ) ;
#37 = DATE_AND_TIME ( #171, #190 ) ;
#38 = CARTESIAN_POINT ( 'NONE',  ( 8.728703347107833388E-16, 1.578999999999998627, 0.2499999999999999445 ) ) ;
#39 = VERTEX_POINT ( 'NONE', #192 ) ;
#40 = CLOSED_SHELL ( 'NONE', ( #12, #233, #21, #223, #133 ) ) ;
#41 = DATE_AND_TIME ( #42, #145 ) ;
#42 = CALENDAR_DATE ( 2021, 26, 11 ) ;
#43 = APPROVAL ( #191, 'UNSPECIFIED' ) ;
#44 = EDGE_LOOP ( 'NONE', ( #127 ) ) ;
#45 = AXIS2_PLACEMENT_3D ( 'NONE', #107, #68, #146 ) ;
#46 = SECURITY_CLASSIFICATION_LEVEL ( 'unclassified' ) ;
#47 = ORIENTED_EDGE ( 'NONE', *, *, #57, .T. ) ;
#48 = CC_DESIGN_PERSON_AND_ORGANIZATION_ASSIGNMENT ( #177, #120, ( #36 ) ) ;
#49 = CONICAL_SURFACE ( 'NONE', #128, 1.434662432702592527, 0.5235987755982970393 ) ;
#50 = DIRECTION ( 'NONE',  ( -1.879315820662264155E-30, 1.000000000000000000, -5.382574438404291575E-16 ) ) ;
#51 = CARTESIAN_POINT ( 'NONE',  ( 0.0000000000000000000, 0.0000000000000000000, 0.0000000000000000000 ) ) ;
#52 = DIRECTION ( 'NONE',  ( 0.0000000000000000000, 1.000000000000000000, 0.0000000000000000000 ) ) ;
#53 = CIRCLE ( 'NONE', #28, 1.578999999999999737 ) ;
#54 = APPROVAL_PERSON_ORGANIZATION ( #65, #230, #26 ) ;
#55 = FACE_OUTER_BOUND ( 'NONE', #126, .T. ) ;
#56 = FACE_OUTER_BOUND ( 'NONE', #198, .T. ) ;
#57 = EDGE_CURVE ( 'NONE', #72, #72, #71, .T. ) ;
#58 = COORDINATED_UNIVERSAL_TIME_OFFSET ( 1, 0, .AHEAD. ) ;
#59 = SECURITY_CLASSIFICATION ( '', '', #46 ) ;
#60 = DIRECTION ( 'NONE',  ( 0.0000000000000000000, 0.0000000000000000000, 1.000000000000000000 ) ) ;
#61 = CALENDAR_DATE ( 2021, 26, 11 ) ;
#62 = EDGE_LOOP ( 'NONE', ( #2 ) ) ;
#63 = CLOSED_SHELL ( 'NONE', ( #218, #139, #151, #89 ) ) ;
#64 = AXIS2_PLACEMENT_3D ( 'NONE', #93, #118, #169 ) ;
#65 = PERSON_AND_ORGANIZATION ( #221, #214 ) ;
#66 = EDGE_CURVE ( 'NONE', #75, #75, #53, .T. ) ;
#67 = CARTESIAN_POINT ( 'NONE',  ( 2.444036937190193601E-13, -7.347880794884121511E-15, 70.00000000000000000 ) ) ;
#68 = DIRECTION ( 'NONE',  ( 3.491481338843133355E-15, 5.382574438404291575E-16, 1.000000000000000000 ) ) ;
#69 = FACE_OUTER_BOUND ( 'NONE', #199, .T. ) ;
#70 = DIRECTION ( 'NONE',  ( -1.879315820662264155E-30, 1.000000000000000000, -5.382574438404291575E-16 ) ) ;
#71 = CIRCLE ( 'NONE', #158, 1.199999999999997513 ) ;
#72 = VERTEX_POINT ( 'NONE', #228 ) ;
#73 = APPROVAL_DATE_TIME ( #35, #170 ) ;
#74 = APPLICATION_PROTOCOL_DEFINITION ( 'international standard', 'config_control_design', 1994, #187 ) ;
#75 = VERTEX_POINT ( 'NONE', #19 ) ;
#76 = APPLICATION_PROTOCOL_DEFINITION ( 'international standard', 'config_control_design', 1994, #140 ) ;
#77 = SHAPE_DEFINITION_REPRESENTATION ( #117, #85 ) ;
#78 = CIRCLE ( 'NONE', #105, 1.499999999999992673 ) ;
#79 = COORDINATED_UNIVERSAL_TIME_OFFSET ( 1, 0, .AHEAD. ) ;
#80 = ORIENTED_EDGE ( 'NONE', *, *, #66, .T. ) ;
#81 = EDGE_LOOP ( 'NONE', ( #23 ) ) ;
#82 = DIRECTION ( 'NONE',  ( -3.491481338843133355E-15, 1.049697256412017316E-16, -1.000000000000000000 ) ) ;
#83 = DIRECTION ( 'NONE',  ( -3.491481338843133355E-15, -5.382574438404291575E-16, -1.000000000000000000 ) ) ;
#84 = EDGE_CURVE ( 'NONE', #136, #136, #104, .T. ) ;
#85 = ADVANCED_BREP_SHAPE_REPRESENTATION ( '321219', ( #6, #87, #184 ), #119 ) ;
#86 = FACE_OUTER_BOUND ( 'NONE', #44, .T. ) ;
#87 = MANIFOLD_SOLID_BREP ( 'Corps-Déplacer/Copier1[2]', #63 ) ;
#88 = DIRECTION ( 'NONE',  ( 3.491481338843133355E-15, -1.049697256412017316E-16, 1.000000000000000000 ) ) ;
#89 = ADVANCED_FACE ( 'NONE', ( #224 ), #217, .T. ) ;
#90 = CARTESIAN_POINT ( 'NONE',  ( 3.821670638604637585E-14, 5.891604363599241512E-15, 10.94569974093262488 ) ) ;
#91 = PERSON_AND_ORGANIZATION ( #221, #214 ) ;
#92 = APPROVAL_STATUS ( 'not_yet_approved' ) ;
#93 = CARTESIAN_POINT ( 'NONE',  ( 3.821670638604637585E-14, -1.148967098756670353E-15, 10.94569974093262488 ) ) ;
#94 = CARTESIAN_POINT ( 'NONE',  ( 3.869445280877825814E-14, 1.499999999999991562, 11.08253175473057794 ) ) ;
#95 = AXIS2_PLACEMENT_3D ( 'NONE', #234, #162, #201 ) ;
#96 = LOCAL_TIME ( 14, 1, 30.00000000000000000, #174 ) ;
#97 = UNCERTAINTY_MEASURE_WITH_UNIT (LENGTH_MEASURE( 1.000000000000000082E-05 ), #227, 'distance_accuracy_value', 'NONE');
#98 = DIRECTION ( 'NONE',  ( 0.0000000000000000000, 1.000000000000000000, 0.0000000000000000000 ) ) ;
#99 = PERSON_AND_ORGANIZATION ( #221, #214 ) ;
#100 = EDGE_LOOP ( 'NONE', ( #5 ) ) ;
#101 = DATE_AND_TIME ( #24, #96 ) ;
#102 = APPROVAL_STATUS ( 'not_yet_approved' ) ;
#103 = ORIENTED_EDGE ( 'NONE', *, *, #160, .T. ) ;
#104 = CIRCLE ( 'NONE', #168, 1.578999999999998405 ) ;
#105 = AXIS2_PLACEMENT_3D ( 'NONE', #167, #181, #222 ) ;
#106 = DIRECTION ( 'NONE',  ( 3.491481338843133355E-15, 5.382574438404291575E-16, 1.000000000000000000 ) ) ;
#107 = CARTESIAN_POINT ( 'NONE',  ( 3.821670638604637585E-14, 5.891604363599241512E-15, 10.94569974093262488 ) ) ;
#108 = PLANE ( 'NONE',  #203 ) ;
#109 = CC_DESIGN_APPROVAL ( #170, ( #164 ) ) ;
#110 = PLANE ( 'NONE',  #238 ) ;
#111 = DIRECTION ( 'NONE',  ( -1.879315820662263805E-30, 1.000000000000000000, -5.382574438404291575E-16 ) ) ;
#112 = PERSON_AND_ORGANIZATION ( #221, #214 ) ;
#113 = CC_DESIGN_PERSON_AND_ORGANIZATION_ASSIGNMENT ( #195, #210, ( #36 ) ) ;
#114 = VERTEX_POINT ( 'NONE', #94 ) ;
#115 = DATE_TIME_ROLE ( 'creation_date' ) ;
#116 = CARTESIAN_POINT ( 'NONE',  ( 2.433562493173664138E-13, -7.316389877191761450E-15, 69.70000000000001705 ) ) ;
#117 = PRODUCT_DEFINITION_SHAPE ( 'NONE', 'NONE',  #164 ) ;
#118 = DIRECTION ( 'NONE',  ( -3.491481338843133355E-15, 1.049697256412017316E-16, -1.000000000000000000 ) ) ;
#119 =( GEOMETRIC_REPRESENTATION_CONTEXT ( 3 ) GLOBAL_UNCERTAINTY_ASSIGNED_CONTEXT ( ( #97 ) ) GLOBAL_UNIT_ASSIGNED_CONTEXT ( ( #227, #209, #18 ) ) REPRESENTATION_CONTEXT ( 'NONE', 'WORKASPACE' ) );
#120 = PERSON_AND_ORGANIZATION_ROLE ( 'creator' ) ;
#121 = EDGE_LOOP ( 'NONE', ( #231 ) ) ;
#122 = CC_DESIGN_PERSON_AND_ORGANIZATION_ASSIGNMENT ( #112, #15, ( #164 ) ) ;
#123 = EDGE_LOOP ( 'NONE', ( #103 ) ) ;
#124 = AXIS2_PLACEMENT_3D ( 'NONE', #116, #206, #98 ) ;
#125 = EDGE_LOOP ( 'NONE', ( #143 ) ) ;
#126 = EDGE_LOOP ( 'NONE', ( #161 ) ) ;
#127 = ORIENTED_EDGE ( 'NONE', *, *, #84, .T. ) ;
#128 = AXIS2_PLACEMENT_3D ( 'NONE', #200, #106, #34 ) ;
#129 = CC_DESIGN_DATE_AND_TIME_ASSIGNMENT ( #37, #115, ( #164 ) ) ;
#130 = CARTESIAN_POINT ( 'NONE',  ( 0.0000000000000000000, 0.0000000000000000000, 0.0000000000000000000 ) ) ;
#131 = EDGE_LOOP ( 'NONE', ( #47 ) ) ;
#132 = DIRECTION ( 'NONE',  ( -3.491481338843133355E-15, -5.382574438404291575E-16, -1.000000000000000000 ) ) ;
#133 = ADVANCED_FACE ( 'NONE', ( #183 ), #110, .T. ) ;
#134 = DIRECTION ( 'NONE',  ( -3.491481338843133355E-15, -5.382574438404291575E-16, -1.000000000000000000 ) ) ;
#135 = FACE_BOUND ( 'NONE', #81, .T. ) ;
#136 = VERTEX_POINT ( 'NONE', #38 ) ;
#137 = FACE_OUTER_BOUND ( 'NONE', #147, .T. ) ;
#138 = CARTESIAN_POINT ( 'NONE',  ( -1.892735826383158072E-31, 1.434662432702592527, -5.421010862427522170E-17 ) ) ;
#139 = ADVANCED_FACE ( 'NONE', ( #56, #11 ), #9, .T. ) ;
#140 = APPLICATION_CONTEXT ( 'configuration controlled 3d designs of mechanical parts and assemblies' ) ;
#141 = AXIS2_PLACEMENT_3D ( 'NONE', #31, #149, #70 ) ;
#142 = APPROVAL_PERSON_ORGANIZATION ( #91, #43, #211 ) ;
#143 = ORIENTED_EDGE ( 'NONE', *, *, #179, .T. ) ;
#144 = DIRECTION ( 'NONE',  ( -3.491481338843133355E-15, 1.049697256412017316E-16, -1.000000000000000000 ) ) ;
#145 = LOCAL_TIME ( 14, 1, 30.00000000000000000, #243 ) ;
#146 = DIRECTION ( 'NONE',  ( 1.879315820662264155E-30, -1.000000000000000000, 5.382574438404291575E-16 ) ) ;
#147 = EDGE_LOOP ( 'NONE', ( #197 ) ) ;
#148 = DIRECTION ( 'NONE',  ( -3.491481338843133355E-15, 1.049697256412017316E-16, -1.000000000000000000 ) ) ;
#149 = DIRECTION ( 'NONE',  ( -3.491481338843133355E-15, -5.382574438404291575E-16, -1.000000000000000000 ) ) ;
#150 = PERSON_AND_ORGANIZATION_ROLE ( 'design_owner' ) ;
#151 = ADVANCED_FACE ( 'NONE', ( #86, #135 ), #49, .T. ) ;
#152 = DIRECTION ( 'NONE',  ( 1.000000000000000000, 0.0000000000000000000, 0.0000000000000000000 ) ) ;
#153 = COORDINATED_UNIVERSAL_TIME_OFFSET ( 1, 0, .AHEAD. ) ;
#154 = AXIS2_PLACEMENT_3D ( 'NONE', #237, #83, #111 ) ;
#155 = CC_DESIGN_APPROVAL ( #230, ( #59 ) ) ;
#156 = ORIENTED_EDGE ( 'NONE', *, *, #179, .F. ) ;
#157 = APPROVAL_DATE_TIME ( #101, #43 ) ;
#158 = AXIS2_PLACEMENT_3D ( 'NONE', #67, #165, #52 ) ;
#159 = CONICAL_SURFACE ( 'NONE', #124, 1.499999999999997558, 0.7853981633974573828 ) ;
#160 = EDGE_CURVE ( 'NONE', #22, #22, #16, .T. ) ;
#161 = ORIENTED_EDGE ( 'NONE', *, *, #66, .F. ) ;
#162 = DIRECTION ( 'NONE',  ( -3.491481338843133355E-15, 1.049697256412017316E-16, -1.000000000000000000 ) ) ;
#163 = FACE_OUTER_BOUND ( 'NONE', #121, .T. ) ;
#164 = PRODUCT_DEFINITION ( 'UNKNOWN', '', #36, #212 ) ;
#165 = DIRECTION ( 'NONE',  ( -3.491481338843133355E-15, 1.049697256412017316E-16, -1.000000000000000000 ) ) ;
#166 = DIRECTION ( 'NONE',  ( 0.0000000000000000000, 1.000000000000000000, 0.0000000000000000000 ) ) ;
#167 = CARTESIAN_POINT ( 'NONE',  ( 3.869445280877825814E-14, -1.163330317703974832E-15, 11.08253175473057794 ) ) ;
#168 = AXIS2_PLACEMENT_3D ( 'NONE', #235, #132, #186 ) ;
#169 = DIRECTION ( 'NONE',  ( 0.0000000000000000000, 1.000000000000000000, 0.0000000000000000000 ) ) ;
#170 = APPROVAL ( #92, 'UNSPECIFIED' ) ;
#171 = CALENDAR_DATE ( 2021, 26, 11 ) ;
#172 = LOCAL_TIME ( 14, 1, 30.00000000000000000, #79 ) ;
#173 = MECHANICAL_CONTEXT ( 'NONE', #187, 'mechanical' ) ;
#174 = COORDINATED_UNIVERSAL_TIME_OFFSET ( 1, 0, .AHEAD. ) ;
#175 = CC_DESIGN_SECURITY_CLASSIFICATION ( #59, ( #36 ) ) ;
#176 = EDGE_CURVE ( 'NONE', #39, #39, #216, .T. ) ;
#177 = PERSON_AND_ORGANIZATION ( #221, #214 ) ;
#178 = EDGE_LOOP ( 'NONE', ( #80 ) ) ;
#179 = EDGE_CURVE ( 'NONE', #114, #114, #78, .T. ) ;
#180 = CIRCLE ( 'NONE', #95, 1.499999999999997558 ) ;
#181 = DIRECTION ( 'NONE',  ( -3.491481338843133355E-15, 1.049697256412017316E-16, -1.000000000000000000 ) ) ;
#182 = DIRECTION ( 'NONE',  ( 0.0000000000000000000, 1.000000000000000000, 0.0000000000000000000 ) ) ;
#183 = FACE_OUTER_BOUND ( 'NONE', #178, .T. ) ;
#184 = AXIS2_PLACEMENT_3D ( 'NONE', #226, #60, #152 ) ;
#185 = FACE_OUTER_BOUND ( 'NONE', #100, .T. ) ;
#186 = DIRECTION ( 'NONE',  ( -1.829572461419161813E-30, 1.000000000000000000, -5.493107903663106199E-16 ) ) ;
#187 = APPLICATION_CONTEXT ( 'configuration controlled 3d designs of mechanical parts and assemblies' ) ;
#188 = CC_DESIGN_PERSON_AND_ORGANIZATION_ASSIGNMENT ( #242, #150, ( #25 ) ) ;
#189 = AXIS2_PLACEMENT_3D ( 'NONE', #90, #134, #166 ) ;
#190 = LOCAL_TIME ( 14, 1, 30.00000000000000000, #58 ) ;
#191 = APPROVAL_STATUS ( 'not_yet_approved' ) ;
#192 = CARTESIAN_POINT ( 'NONE',  ( 3.821670638604637585E-14, 1.578999999999998627, 10.94569974093262488 ) ) ;
#193 = FACE_BOUND ( 'NONE', #131, .T. ) ;
#194 = DATE_AND_TIME ( #27, #172 ) ;
#195 = PERSON_AND_ORGANIZATION ( #221, #214 ) ;
#196 = APPROVAL_PERSON_ORGANIZATION ( #207, #170, #225 ) ;
#197 = ORIENTED_EDGE ( 'NONE', *, *, #8, .F. ) ;
#198 = EDGE_LOOP ( 'NONE', ( #232 ) ) ;
#199 = EDGE_LOOP ( 'NONE', ( #156 ) ) ;
#200 = CARTESIAN_POINT ( 'NONE',  ( 2.506910224449476956E-30, 3.864729489852320360E-31, 7.180076251761139264E-16 ) ) ;
#201 = DIRECTION ( 'NONE',  ( 0.0000000000000000000, 1.000000000000000000, 0.0000000000000000000 ) ) ;
#202 = CARTESIAN_POINT ( 'NONE',  ( 3.821670638604637585E-14, -1.148967098756670353E-15, 10.94569974093262488 ) ) ;
#203 = AXIS2_PLACEMENT_3D ( 'NONE', #236, #88, #32 ) ;
#204 = DIRECTION ( 'NONE',  ( 3.664998382197393967E-31, 1.000000000000000000, 1.049697256412017316E-16 ) ) ;
#205 = CC_DESIGN_DATE_AND_TIME_ASSIGNMENT ( #41, #4, ( #59 ) ) ;
#206 = DIRECTION ( 'NONE',  ( -3.491481338843133355E-15, 1.049697256412017316E-16, -1.000000000000000000 ) ) ;
#207 = PERSON_AND_ORGANIZATION ( #221, #214 ) ;
#208 = CARTESIAN_POINT ( 'NONE',  ( 2.433562493173664138E-13, 1.499999999999990230, 69.70000000000001705 ) ) ;
#209 =( NAMED_UNIT ( * ) PLANE_ANGLE_UNIT ( ) SI_UNIT ( $, .RADIAN. ) );
#210 = PERSON_AND_ORGANIZATION_ROLE ( 'design_supplier' ) ;
#211 = APPROVAL_ROLE ( '' ) ;
#212 = DESIGN_CONTEXT ( 'detailed design', #140, 'design' ) ;
#213 = EDGE_LOOP ( 'NONE', ( #215 ) ) ;
#214 = ORGANIZATION ( 'UNSPECIFIED', 'UNSPECIFIED', '' ) ;
#215 = ORIENTED_EDGE ( 'NONE', *, *, #84, .F. ) ;
#216 = CIRCLE ( 'NONE', #189, 1.578999999999992632 ) ;
#217 = PLANE ( 'NONE',  #141 ) ;
#218 = ADVANCED_FACE ( 'NONE', ( #163 ), #30, .T. ) ;
#219 = FACE_BOUND ( 'NONE', #125, .T. ) ;
#220 = FACE_OUTER_BOUND ( 'NONE', #62, .T. ) ;
#221 = PERSON ( 'UNSPECIFIED', 'UNSPECIFIED', 'UNSPECIFIED', ('UNSPECIFIED'), ('UNSPECIFIED'), ('UNSPECIFIED') ) ;
#222 = DIRECTION ( 'NONE',  ( 0.0000000000000000000, 1.000000000000000000, 0.0000000000000000000 ) ) ;
#223 = ADVANCED_FACE ( 'NONE', ( #219, #55 ), #1, .T. ) ;
#224 = FACE_OUTER_BOUND ( 'NONE', #123, .T. ) ;
#225 = APPROVAL_ROLE ( '' ) ;
#226 = CARTESIAN_POINT ( 'NONE',  ( 0.0000000000000000000, 0.0000000000000000000, 0.0000000000000000000 ) ) ;
#227 =( LENGTH_UNIT ( ) NAMED_UNIT ( * ) SI_UNIT ( .MILLI., .METRE. ) );
#228 = CARTESIAN_POINT ( 'NONE',  ( 2.444036937190193601E-13, 1.199999999999990186, 70.00000000000000000 ) ) ;
#229 = AXIS2_PLACEMENT_3D ( 'NONE', #130, #29, #50 ) ;
#230 = APPROVAL ( #102, 'UNSPECIFIED' ) ;
#231 = ORIENTED_EDGE ( 'NONE', *, *, #176, .F. ) ;
#232 = ORIENTED_EDGE ( 'NONE', *, *, #176, .T. ) ;
#233 = ADVANCED_FACE ( 'NONE', ( #193, #137 ), #159, .T. ) ;
#234 = CARTESIAN_POINT ( 'NONE',  ( 2.433562493173664138E-13, -7.316389877191761450E-15, 69.70000000000001705 ) ) ;
#235 = CARTESIAN_POINT ( 'NONE',  ( 8.728703347107862970E-16, 1.345643609601077331E-16, 0.2500000000000008327 ) ) ;
#236 = CARTESIAN_POINT ( 'NONE',  ( 2.444036937190193601E-13, -7.347880794884121511E-15, 70.00000000000000000 ) ) ;
#237 = CARTESIAN_POINT ( 'NONE',  ( 2.506910224449476956E-30, 3.864729489852320360E-31, 7.180076251761139264E-16 ) ) ;
#238 = AXIS2_PLACEMENT_3D ( 'NONE', #13, #82, #14 ) ;
#239 = VERTEX_POINT ( 'NONE', #208 ) ;
#240 = LOCAL_TIME ( 14, 1, 30.00000000000000000, #153 ) ;
#241 = CC_DESIGN_PERSON_AND_ORGANIZATION_ASSIGNMENT ( #99, #3, ( #59 ) ) ;
#242 = PERSON_AND_ORGANIZATION ( #221, #214 ) ;
#243 = COORDINATED_UNIVERSAL_TIME_OFFSET ( 1, 0, .AHEAD. ) ;
ENDSEC;
END-ISO-10303-21;
