ISO-10303-21;
HEADER;
FILE_DESCRIPTION (( 'STEP AP203' ),
    '1' );
FILE_NAME ('321218.step',
    '2021-11-26T13:01:29',
    ( '' ),
    ( '' ),
    'SwSTEP 2.0',
    'SolidWorks 2019',
    '' );
FILE_SCHEMA (( 'CONFIG_CONTROL_DESIGN' ));
ENDSEC;

DATA;
#1 = CARTESIAN_POINT ( 'NONE',  ( 8.728703347107833388E-16, 1.573999999999998733, 0.2499999999999999445 ) ) ;
#2 = CLOSED_SHELL ( 'NONE', ( #216, #12, #183, #159 ) ) ;
#3 = FACE_BOUND ( 'NONE', #60, .T. ) ;
#4 = VERTEX_POINT ( 'NONE', #1 ) ;
#5 = CARTESIAN_POINT ( 'NONE',  ( 2.444036937190193601E-13, 1.199999999999990186, 70.00000000000000000 ) ) ;
#6 = CC_DESIGN_DATE_AND_TIME_ASSIGNMENT ( #34, #140, ( #52 ) ) ;
#7 = APPROVAL_STATUS ( 'not_yet_approved' ) ;
#8 = PERSON_AND_ORGANIZATION ( #15, #195 ) ;
#9 = AXIS2_PLACEMENT_3D ( 'NONE', #131, #145, #217 ) ;
#10 = LOCAL_TIME ( 14, 1, 29.00000000000000000, #142 ) ;
#11 = SHAPE_DEFINITION_REPRESENTATION ( #83, #93 ) ;
#12 = ADVANCED_FACE ( 'NONE', ( #16, #164 ), #205, .T. ) ;
#13 = CALENDAR_DATE ( 2021, 26, 11 ) ;
#14 = CIRCLE ( 'NONE', #150, 1.573999999999992960 ) ;
#15 = PERSON ( 'UNSPECIFIED', 'UNSPECIFIED', 'UNSPECIFIED', ('UNSPECIFIED'), ('UNSPECIFIED'), ('UNSPECIFIED') ) ;
#16 = FACE_OUTER_BOUND ( 'NONE', #190, .T. ) ;
#17 = DIRECTION ( 'NONE',  ( -1.877154004751151549E-30, 1.000000000000000000, -5.376382751549024142E-16 ) ) ;
#18 = FACE_BOUND ( 'NONE', #24, .T. ) ;
#19 = LOCAL_TIME ( 14, 1, 29.00000000000000000, #177 ) ;
#20 = EDGE_CURVE ( 'NONE', #79, #79, #158, .T. ) ;
#21 = ORIENTED_EDGE ( 'NONE', *, *, #109, .T. ) ;
#22 = EDGE_LOOP ( 'NONE', ( #135 ) ) ;
#23 =( NAMED_UNIT ( * ) PLANE_ANGLE_UNIT ( ) SI_UNIT ( $, .RADIAN. ) );
#24 = EDGE_LOOP ( 'NONE', ( #75 ) ) ;
#25 = CARTESIAN_POINT ( 'NONE',  ( 2.433562493173664138E-13, 1.499999999999990230, 69.70000000000001705 ) ) ;
#26 = DIRECTION ( 'NONE',  ( 0.0000000000000000000, 1.000000000000000000, 0.0000000000000000000 ) ) ;
#27 = AXIS2_PLACEMENT_3D ( 'NONE', #61, #81, #116 ) ;
#28 = PERSON_AND_ORGANIZATION ( #15, #195 ) ;
#29 = APPROVAL_STATUS ( 'not_yet_approved' ) ;
#30 = APPLICATION_PROTOCOL_DEFINITION ( 'international standard', 'config_control_design', 1994, #92 ) ;
#31 = CC_DESIGN_PERSON_AND_ORGANIZATION_ASSIGNMENT ( #123, #68, ( #242 ) ) ;
#32 = APPROVAL_PERSON_ORGANIZATION ( #201, #172, #176 ) ;
#33 = COORDINATED_UNIVERSAL_TIME_OFFSET ( 1, 0, .AHEAD. ) ;
#34 = DATE_AND_TIME ( #88, #185 ) ;
#35 = AXIS2_PLACEMENT_3D ( 'NONE', #120, #168, #44 ) ;
#36 = EDGE_LOOP ( 'NONE', ( #111 ) ) ;
#37 = DIRECTION ( 'NONE',  ( -3.491481338843133355E-15, -5.376382751549024142E-16, -1.000000000000000000 ) ) ;
#38 = CARTESIAN_POINT ( 'NONE',  ( 2.494422978351629698E-30, 3.841055235403558794E-31, 7.144311357477084454E-16 ) ) ;
#39 = DIRECTION ( 'NONE',  ( -3.491481338843133355E-15, 1.049697256412017316E-16, -1.000000000000000000 ) ) ;
#40 = LOCAL_TIME ( 14, 1, 29.00000000000000000, #157 ) ;
#41 = DIRECTION ( 'NONE',  ( -3.491481338843133355E-15, -5.376382751549024142E-16, -1.000000000000000000 ) ) ;
#42 = MECHANICAL_CONTEXT ( 'NONE', #107, 'mechanical' ) ;
#43 = DIRECTION ( 'NONE',  ( -1.835384318031039636E-30, 1.000000000000000000, -5.510557420510828282E-16 ) ) ;
#44 = DIRECTION ( 'NONE',  ( 1.877154004751151198E-30, -1.000000000000000000, 5.376382751549024142E-16 ) ) ;
#45 = EDGE_CURVE ( 'NONE', #151, #151, #99, .T. ) ;
#46 = DIRECTION ( 'NONE',  ( 0.0000000000000000000, 1.000000000000000000, 0.0000000000000000000 ) ) ;
#47 = APPROVAL_STATUS ( 'not_yet_approved' ) ;
#48 = ADVANCED_FACE ( 'NONE', ( #114 ), #208, .T. ) ;
#49 = PERSON_AND_ORGANIZATION_ROLE ( 'creator' ) ;
#50 = CALENDAR_DATE ( 2021, 26, 11 ) ;
#51 = AXIS2_PLACEMENT_3D ( 'NONE', #186, #219, #184 ) ;
#52 = SECURITY_CLASSIFICATION ( '', '', #54 ) ;
#53 = DATE_TIME_ROLE ( 'creation_date' ) ;
#54 = SECURITY_CLASSIFICATION_LEVEL ( 'unclassified' ) ;
#55 = ORIENTED_EDGE ( 'NONE', *, *, #203, .F. ) ;
#56 = CC_DESIGN_PERSON_AND_ORGANIZATION_ASSIGNMENT ( #199, #127, ( #52 ) ) ;
#57 = CARTESIAN_POINT ( 'NONE',  ( -1.436485071814130963E-30, 1.429662432702592634, -4.114256764981294444E-16 ) ) ;
#58 = EDGE_LOOP ( 'NONE', ( #55 ) ) ;
#59 = CARTESIAN_POINT ( 'NONE',  ( 3.824694350140915089E-14, 5.889483213121787479E-15, 10.95435999497046708 ) ) ;
#60 = EDGE_LOOP ( 'NONE', ( #130 ) ) ;
#61 = CARTESIAN_POINT ( 'NONE',  ( 2.433562493173664138E-13, -7.316389877191761450E-15, 69.70000000000001705 ) ) ;
#62 = DIRECTION ( 'NONE',  ( 0.0000000000000000000, 1.000000000000000000, 0.0000000000000000000 ) ) ;
#63 = ADVANCED_FACE ( 'NONE', ( #18, #95 ), #105, .T. ) ;
#64 = CARTESIAN_POINT ( 'NONE',  ( 3.824694350140915089E-14, 1.573999999999998733, 10.95435999497046708 ) ) ;
#65 = DATE_AND_TIME ( #104, #40 ) ;
#66 = CIRCLE ( 'NONE', #180, 1.573999999999998511 ) ;
#67 = PRODUCT_DEFINITION_FORMATION_WITH_SPECIFIED_SOURCE ( 'ANY', '', #136, .NOT_KNOWN. ) ;
#68 = PERSON_AND_ORGANIZATION_ROLE ( 'creator' ) ;
#69 = COORDINATED_UNIVERSAL_TIME_OFFSET ( 1, 0, .AHEAD. ) ;
#70 = CC_DESIGN_SECURITY_CLASSIFICATION ( #52, ( #67 ) ) ;
#71 = EDGE_LOOP ( 'NONE', ( #146 ) ) ;
#72 = CARTESIAN_POINT ( 'NONE',  ( 3.824694350140915089E-14, -1.149876163247006077E-15, 10.95435999497046708 ) ) ;
#73 = ADVANCED_FACE ( 'NONE', ( #94, #163 ), #147, .T. ) ;
#74 = CC_DESIGN_APPROVAL ( #101, ( #67 ) ) ;
#75 = ORIENTED_EDGE ( 'NONE', *, *, #209, .T. ) ;
#76 = UNCERTAINTY_MEASURE_WITH_UNIT (LENGTH_MEASURE( 1.000000000000000082E-05 ), #189, 'distance_accuracy_value', 'NONE');
#77 = CARTESIAN_POINT ( 'NONE',  ( 3.824694350140915720E-14, 1.573999999999998733, 10.95435999497046886 ) ) ;
#78 = DIRECTION ( 'NONE',  ( -3.491481338843133355E-15, 1.049697256412017316E-16, -1.000000000000000000 ) ) ;
#79 = VERTEX_POINT ( 'NONE', #225 ) ;
#80 = VERTEX_POINT ( 'NONE', #64 ) ;
#81 = DIRECTION ( 'NONE',  ( -3.491481338843133355E-15, 1.049697256412017316E-16, -1.000000000000000000 ) ) ;
#82 = PRODUCT_RELATED_PRODUCT_CATEGORY ( 'detail', '', ( #136 ) ) ;
#83 = PRODUCT_DEFINITION_SHAPE ( 'NONE', 'NONE',  #242 ) ;
#84 = DIRECTION ( 'NONE',  ( -3.491481338843133355E-15, 1.049697256412017316E-16, -1.000000000000000000 ) ) ;
#85 = CLOSED_SHELL ( 'NONE', ( #48, #224, #73, #63, #161 ) ) ;
#86 = CIRCLE ( 'NONE', #106, 1.499999999999992673 ) ;
#87 = CARTESIAN_POINT ( 'NONE',  ( 0.0000000000000000000, 0.0000000000000000000, 0.0000000000000000000 ) ) ;
#88 = CALENDAR_DATE ( 2021, 26, 11 ) ;
#89 = AXIS2_PLACEMENT_3D ( 'NONE', #211, #193, #227 ) ;
#90 = DATE_AND_TIME ( #13, #10 ) ;
#91 = APPROVAL ( #47, 'UNSPECIFIED' ) ;
#92 = APPLICATION_CONTEXT ( 'configuration controlled 3d designs of mechanical parts and assemblies' ) ;
#93 = ADVANCED_BREP_SHAPE_REPRESENTATION ( '321218', ( #234, #240, #169 ), #173 ) ;
#94 = FACE_OUTER_BOUND ( 'NONE', #188, .T. ) ;
#95 = FACE_OUTER_BOUND ( 'NONE', #233, .T. ) ;
#96 = CIRCLE ( 'NONE', #226, 1.573999999999999844 ) ;
#97 = DIRECTION ( 'NONE',  ( 0.0000000000000000000, 1.000000000000000000, 0.0000000000000000000 ) ) ;
#98 = DIRECTION ( 'NONE',  ( 0.0000000000000000000, 1.000000000000000000, 0.0000000000000000000 ) ) ;
#99 = CIRCLE ( 'NONE', #210, 1.499999999999997558 ) ;
#100 = FACE_BOUND ( 'NONE', #241, .T. ) ;
#101 = APPROVAL ( #29, 'UNSPECIFIED' ) ;
#102 = CARTESIAN_POINT ( 'NONE',  ( 3.824694350140915089E-14, 1.573999999999998733, 10.95435999497046708 ) ) ;
#103 = DATE_AND_TIME ( #175, #19 ) ;
#104 = CALENDAR_DATE ( 2021, 26, 11 ) ;
#105 = CONICAL_SURFACE ( 'NONE', #238, 1.573999999999999844, 0.5235987755982950409 ) ;
#106 = AXIS2_PLACEMENT_3D ( 'NONE', #137, #119, #46 ) ;
#107 = APPLICATION_CONTEXT ( 'configuration controlled 3d designs of mechanical parts and assemblies' ) ;
#108 = AXIS2_PLACEMENT_3D ( 'NONE', #194, #84, #26 ) ;
#109 = EDGE_CURVE ( 'NONE', #196, #196, #96, .T. ) ;
#110 = DIRECTION ( 'NONE',  ( -3.491481338843133355E-15, 1.049697256412017316E-16, -1.000000000000000000 ) ) ;
#111 = ORIENTED_EDGE ( 'NONE', *, *, #209, .F. ) ;
#112 = DIRECTION ( 'NONE',  ( 0.0000000000000000000, 1.000000000000000000, 0.0000000000000000000 ) ) ;
#113 = APPROVAL_PERSON_ORGANIZATION ( #8, #91, #230 ) ;
#114 = FACE_OUTER_BOUND ( 'NONE', #22, .T. ) ;
#115 = ORIENTED_EDGE ( 'NONE', *, *, #203, .T. ) ;
#116 = DIRECTION ( 'NONE',  ( 0.0000000000000000000, 1.000000000000000000, 0.0000000000000000000 ) ) ;
#117 =( NAMED_UNIT ( * ) SI_UNIT ( $, .STERADIAN. ) SOLID_ANGLE_UNIT ( ) );
#118 = DIRECTION ( 'NONE',  ( -3.491481338843133355E-15, -5.376382751549024142E-16, -1.000000000000000000 ) ) ;
#119 = DIRECTION ( 'NONE',  ( -3.491481338843133355E-15, 1.049697256412017316E-16, -1.000000000000000000 ) ) ;
#120 = CARTESIAN_POINT ( 'NONE',  ( 2.494422978351629698E-30, 3.841055235403558794E-31, 7.144311357477084454E-16 ) ) ;
#121 = CC_DESIGN_PERSON_AND_ORGANIZATION_ASSIGNMENT ( #212, #214, ( #136 ) ) ;
#122 = PERSON_AND_ORGANIZATION ( #15, #195 ) ;
#123 = PERSON_AND_ORGANIZATION ( #15, #195 ) ;
#124 = CC_DESIGN_PERSON_AND_ORGANIZATION_ASSIGNMENT ( #28, #198, ( #67 ) ) ;
#125 = AXIS2_PLACEMENT_3D ( 'NONE', #57, #37, #182 ) ;
#126 = CONICAL_SURFACE ( 'NONE', #35, 1.429662432702592634, 0.5235987755982970393 ) ;
#127 = PERSON_AND_ORGANIZATION_ROLE ( 'classification_officer' ) ;
#128 = EDGE_LOOP ( 'NONE', ( #115 ) ) ;
#129 = FACE_OUTER_BOUND ( 'NONE', #71, .T. ) ;
#130 = ORIENTED_EDGE ( 'NONE', *, *, #229, .T. ) ;
#131 = CARTESIAN_POINT ( 'NONE',  ( 0.0000000000000000000, 0.0000000000000000000, 0.0000000000000000000 ) ) ;
#132 = CC_DESIGN_PERSON_AND_ORGANIZATION_ASSIGNMENT ( #122, #49, ( #67 ) ) ;
#133 = CARTESIAN_POINT ( 'NONE',  ( 2.444036937190193601E-13, -7.347880794884121511E-15, 70.00000000000000000 ) ) ;
#134 = VERTEX_POINT ( 'NONE', #152 ) ;
#135 = ORIENTED_EDGE ( 'NONE', *, *, #229, .F. ) ;
#136 = PRODUCT ( '321218', '321218', '', ( #42 ) ) ;
#137 = CARTESIAN_POINT ( 'NONE',  ( 3.869445280877825814E-14, -1.163330317703974832E-15, 11.08253175473057794 ) ) ;
#138 = CIRCLE ( 'NONE', #108, 1.199999999999997513 ) ;
#139 = APPLICATION_PROTOCOL_DEFINITION ( 'international standard', 'config_control_design', 1994, #107 ) ;
#140 = DATE_TIME_ROLE ( 'classification_date' ) ;
#141 = CC_DESIGN_DATE_AND_TIME_ASSIGNMENT ( #232, #53, ( #242 ) ) ;
#142 = COORDINATED_UNIVERSAL_TIME_OFFSET ( 1, 0, .AHEAD. ) ;
#143 = CC_DESIGN_APPROVAL ( #172, ( #242 ) ) ;
#144 = PERSON_AND_ORGANIZATION ( #15, #195 ) ;
#145 = DIRECTION ( 'NONE',  ( -3.491481338843133355E-15, -5.376382751549024142E-16, -1.000000000000000000 ) ) ;
#146 = ORIENTED_EDGE ( 'NONE', *, *, #20, .T. ) ;
#147 = CYLINDRICAL_SURFACE ( 'NONE', #51, 1.499999999999995337 ) ;
#148 = CARTESIAN_POINT ( 'NONE',  ( 3.824694350140915089E-14, -1.149876163247006077E-15, 10.95435999497046708 ) ) ;
#149 = ORIENTED_EDGE ( 'NONE', *, *, #45, .T. ) ;
#150 = AXIS2_PLACEMENT_3D ( 'NONE', #59, #41, #62 ) ;
#151 = VERTEX_POINT ( 'NONE', #25 ) ;
#152 = CARTESIAN_POINT ( 'NONE',  ( 3.869445280877825814E-14, 1.499999999999991562, 11.08253175473057794 ) ) ;
#153 = ORIENTED_EDGE ( 'NONE', *, *, #165, .F. ) ;
#154 = FACE_OUTER_BOUND ( 'NONE', #220, .T. ) ;
#155 = APPROVAL_PERSON_ORGANIZATION ( #144, #101, #213 ) ;
#156 = DIRECTION ( 'NONE',  ( 0.0000000000000000000, 0.0000000000000000000, 1.000000000000000000 ) ) ;
#157 = COORDINATED_UNIVERSAL_TIME_OFFSET ( 1, 0, .AHEAD. ) ;
#158 = CIRCLE ( 'NONE', #200, 1.429662432702592634 ) ;
#159 = ADVANCED_FACE ( 'NONE', ( #129 ), #204, .T. ) ;
#160 = APPROVAL_DATE_TIME ( #90, #101 ) ;
#161 = ADVANCED_FACE ( 'NONE', ( #166 ), #243, .T. ) ;
#162 = EDGE_LOOP ( 'NONE', ( #153 ) ) ;
#163 = FACE_OUTER_BOUND ( 'NONE', #36, .T. ) ;
#164 = FACE_OUTER_BOUND ( 'NONE', #58, .T. ) ;
#165 = EDGE_CURVE ( 'NONE', #80, #80, #14, .T. ) ;
#166 = FACE_OUTER_BOUND ( 'NONE', #181, .T. ) ;
#167 = DIRECTION ( 'NONE',  ( -3.491481338843133355E-15, 1.049697256412017316E-16, -1.000000000000000000 ) ) ;
#168 = DIRECTION ( 'NONE',  ( 3.491481338843133355E-15, 5.376382751549024142E-16, 1.000000000000000000 ) ) ;
#169 = AXIS2_PLACEMENT_3D ( 'NONE', #87, #156, #228 ) ;
#170 = FACE_OUTER_BOUND ( 'NONE', #162, .T. ) ;
#171 = PLANE ( 'NONE',  #89 ) ;
#172 = APPROVAL ( #7, 'UNSPECIFIED' ) ;
#173 =( GEOMETRIC_REPRESENTATION_CONTEXT ( 3 ) GLOBAL_UNCERTAINTY_ASSIGNED_CONTEXT ( ( #76 ) ) GLOBAL_UNIT_ASSIGNED_CONTEXT ( ( #189, #23, #117 ) ) REPRESENTATION_CONTEXT ( 'NONE', 'WORKASPACE' ) );
#174 = CARTESIAN_POINT ( 'NONE',  ( 8.728703347107862970E-16, 1.344095687887260226E-16, 0.2500000000000008327 ) ) ;
#175 = CALENDAR_DATE ( 2021, 26, 11 ) ;
#176 = APPROVAL_ROLE ( '' ) ;
#177 = COORDINATED_UNIVERSAL_TIME_OFFSET ( 1, 0, .AHEAD. ) ;
#178 = CC_DESIGN_APPROVAL ( #91, ( #52 ) ) ;
#179 = AXIS2_PLACEMENT_3D ( 'NONE', #133, #235, #237 ) ;
#180 = AXIS2_PLACEMENT_3D ( 'NONE', #174, #118, #43 ) ;
#181 = EDGE_LOOP ( 'NONE', ( #21 ) ) ;
#182 = DIRECTION ( 'NONE',  ( -1.877154004751151549E-30, 1.000000000000000000, -5.376382751549024142E-16 ) ) ;
#183 = ADVANCED_FACE ( 'NONE', ( #191, #100 ), #126, .T. ) ;
#184 = DIRECTION ( 'NONE',  ( 3.664998382197393967E-31, 1.000000000000000000, 1.049697256412017316E-16 ) ) ;
#185 = LOCAL_TIME ( 14, 1, 29.00000000000000000, #33 ) ;
#186 = CARTESIAN_POINT ( 'NONE',  ( 0.0000000000000000000, 0.0000000000000000000, 0.0000000000000000000 ) ) ;
#187 = ORIENTED_EDGE ( 'NONE', *, *, #45, .F. ) ;
#188 = EDGE_LOOP ( 'NONE', ( #149 ) ) ;
#189 =( LENGTH_UNIT ( ) NAMED_UNIT ( * ) SI_UNIT ( .MILLI., .METRE. ) );
#190 = EDGE_LOOP ( 'NONE', ( #192 ) ) ;
#191 = FACE_OUTER_BOUND ( 'NONE', #128, .T. ) ;
#192 = ORIENTED_EDGE ( 'NONE', *, *, #165, .T. ) ;
#193 = DIRECTION ( 'NONE',  ( 3.491481338843133355E-15, 5.376382751549024142E-16, 1.000000000000000000 ) ) ;
#194 = CARTESIAN_POINT ( 'NONE',  ( 2.444036937190193601E-13, -7.347880794884121511E-15, 70.00000000000000000 ) ) ;
#195 = ORGANIZATION ( 'UNSPECIFIED', 'UNSPECIFIED', '' ) ;
#196 = VERTEX_POINT ( 'NONE', #102 ) ;
#197 = APPROVAL_DATE_TIME ( #103, #172 ) ;
#198 = PERSON_AND_ORGANIZATION_ROLE ( 'design_supplier' ) ;
#199 = PERSON_AND_ORGANIZATION ( #15, #195 ) ;
#200 = AXIS2_PLACEMENT_3D ( 'NONE', #38, #218, #17 ) ;
#201 = PERSON_AND_ORGANIZATION ( #15, #195 ) ;
#202 = ORIENTED_EDGE ( 'NONE', *, *, #109, .F. ) ;
#203 = EDGE_CURVE ( 'NONE', #4, #4, #66, .T. ) ;
#204 = PLANE ( 'NONE',  #125 ) ;
#205 = CYLINDRICAL_SURFACE ( 'NONE', #9, 1.573999999999995847 ) ;
#206 = CARTESIAN_POINT ( 'NONE',  ( 2.433562493173664138E-13, -7.316389877191761450E-15, 69.70000000000001705 ) ) ;
#207 = LOCAL_TIME ( 14, 1, 29.00000000000000000, #69 ) ;
#208 = PLANE ( 'NONE',  #179 ) ;
#209 = EDGE_CURVE ( 'NONE', #134, #134, #86, .T. ) ;
#210 = AXIS2_PLACEMENT_3D ( 'NONE', #206, #110, #98 ) ;
#211 = CARTESIAN_POINT ( 'NONE',  ( 3.824694350140915720E-14, 5.889483213121789057E-15, 10.95435999497046886 ) ) ;
#212 = PERSON_AND_ORGANIZATION ( #15, #195 ) ;
#213 = APPROVAL_ROLE ( '' ) ;
#214 = PERSON_AND_ORGANIZATION_ROLE ( 'design_owner' ) ;
#215 = AXIS2_PLACEMENT_3D ( 'NONE', #77, #78, #221 ) ;
#216 = ADVANCED_FACE ( 'NONE', ( #170 ), #171, .T. ) ;
#217 = DIRECTION ( 'NONE',  ( -1.877154004751151549E-30, 1.000000000000000000, -5.376382751549024142E-16 ) ) ;
#218 = DIRECTION ( 'NONE',  ( -3.491481338843133355E-15, -5.376382751549024142E-16, -1.000000000000000000 ) ) ;
#219 = DIRECTION ( 'NONE',  ( -3.491481338843133355E-15, 1.049697256412017316E-16, -1.000000000000000000 ) ) ;
#220 = EDGE_LOOP ( 'NONE', ( #187 ) ) ;
#221 = DIRECTION ( 'NONE',  ( 3.664998382197393967E-31, 1.000000000000000000, 1.049697256412017316E-16 ) ) ;
#222 = ORIENTED_EDGE ( 'NONE', *, *, #20, .F. ) ;
#223 = VERTEX_POINT ( 'NONE', #5 ) ;
#224 = ADVANCED_FACE ( 'NONE', ( #3, #154 ), #239, .T. ) ;
#225 = CARTESIAN_POINT ( 'NONE',  ( -1.892735826383158072E-31, 1.429662432702592634, -5.421010862427522170E-17 ) ) ;
#226 = AXIS2_PLACEMENT_3D ( 'NONE', #72, #167, #97 ) ;
#227 = DIRECTION ( 'NONE',  ( 1.877154004751151549E-30, -1.000000000000000000, 5.376382751549024142E-16 ) ) ;
#228 = DIRECTION ( 'NONE',  ( 1.000000000000000000, 0.0000000000000000000, 0.0000000000000000000 ) ) ;
#229 = EDGE_CURVE ( 'NONE', #223, #223, #138, .T. ) ;
#230 = APPROVAL_ROLE ( '' ) ;
#231 = APPROVAL_DATE_TIME ( #65, #91 ) ;
#232 = DATE_AND_TIME ( #50, #207 ) ;
#233 = EDGE_LOOP ( 'NONE', ( #202 ) ) ;
#234 = MANIFOLD_SOLID_BREP ( 'Corps-Déplacer/Copier1[1]', #85 ) ;
#235 = DIRECTION ( 'NONE',  ( 3.491481338843133355E-15, -1.049697256412017316E-16, 1.000000000000000000 ) ) ;
#236 = DESIGN_CONTEXT ( 'detailed design', #92, 'design' ) ;
#237 = DIRECTION ( 'NONE',  ( -3.664998382197393967E-31, -1.000000000000000000, -1.049697256412017316E-16 ) ) ;
#238 = AXIS2_PLACEMENT_3D ( 'NONE', #148, #39, #112 ) ;
#239 = CONICAL_SURFACE ( 'NONE', #27, 1.499999999999997558, 0.7853981633974573828 ) ;
#240 = MANIFOLD_SOLID_BREP ( 'Corps-Déplacer/Copier1[2]', #2 ) ;
#241 = EDGE_LOOP ( 'NONE', ( #222 ) ) ;
#242 = PRODUCT_DEFINITION ( 'UNKNOWN', '', #67, #236 ) ;
#243 = PLANE ( 'NONE',  #215 ) ;
ENDSEC;
END-ISO-10303-21;
