ISO-10303-21;
HEADER;
FILE_DESCRIPTION (( 'STEP AP203' ),
    '1' );
FILE_NAME ('321217.step',
    '2021-11-26T13:01:29',
    ( '' ),
    ( '' ),
    'SwSTEP 2.0',
    'SolidWorks 2019',
    '' );
FILE_SCHEMA (( 'CONFIG_CONTROL_DESIGN' ));
ENDSEC;

DATA;
#1 = AXIS2_PLACEMENT_3D ( 'NONE', #180, #205, #19 ) ;
#2 = MANIFOLD_SOLID_BREP ( 'Corps-Déplacer/Copier1[2]', #106 ) ;
#3 =( LENGTH_UNIT ( ) NAMED_UNIT ( * ) SI_UNIT ( .MILLI., .METRE. ) );
#4 = DIRECTION ( 'NONE',  ( -3.491481338843133355E-15, 1.049697256412017316E-16, -1.000000000000000000 ) ) ;
#5 = ADVANCED_FACE ( 'NONE', ( #90 ), #14, .T. ) ;
#6 = AXIS2_PLACEMENT_3D ( 'NONE', #199, #31, #182 ) ;
#7 = ADVANCED_FACE ( 'NONE', ( #177, #232 ), #43, .T. ) ;
#8 = ORIENTED_EDGE ( 'NONE', *, *, #230, .F. ) ;
#9 = CIRCLE ( 'NONE', #176, 1.499999999999992673 ) ;
#10 = CARTESIAN_POINT ( 'NONE',  ( 0.0000000000000000000, 0.0000000000000000000, 0.0000000000000000000 ) ) ;
#11 = CIRCLE ( 'NONE', #228, 1.499999999999997558 ) ;
#12 = DIRECTION ( 'NONE',  ( 3.664998382197393967E-31, 1.000000000000000000, 1.049697256412017316E-16 ) ) ;
#13 = DATE_AND_TIME ( #157, #40 ) ;
#14 = PLANE ( 'NONE',  #47 ) ;
#15 = APPROVAL_ROLE ( '' ) ;
#16 = DIRECTION ( 'NONE',  ( -3.491481338843133355E-15, -5.370200846958112728E-16, -1.000000000000000000 ) ) ;
#17 = AXIS2_PLACEMENT_3D ( 'NONE', #37, #116, #201 ) ;
#18 = PRODUCT_DEFINITION_FORMATION_WITH_SPECIFIED_SOURCE ( 'ANY', '', #23, .NOT_KNOWN. ) ;
#19 = DIRECTION ( 'NONE',  ( 1.874995604299383814E-30, -1.000000000000000000, 5.370200846958112728E-16 ) ) ;
#20 = CC_DESIGN_PERSON_AND_ORGANIZATION_ASSIGNMENT ( #79, #145, ( #18 ) ) ;
#21 = APPROVAL_STATUS ( 'not_yet_approved' ) ;
#22 = CARTESIAN_POINT ( 'NONE',  ( 8.728703347107833388E-16, 1.568999999999998618, 0.2499999999999999445 ) ) ;
#23 = PRODUCT ( '321217', '321217', '', ( #71 ) ) ;
#24 = VERTEX_POINT ( 'NONE', #188 ) ;
#25 = CC_DESIGN_PERSON_AND_ORGANIZATION_ASSIGNMENT ( #54, #111, ( #82 ) ) ;
#26 = EDGE_LOOP ( 'NONE', ( #174 ) ) ;
#27 = AXIS2_PLACEMENT_3D ( 'NONE', #10, #88, #234 ) ;
#28 = ORIENTED_EDGE ( 'NONE', *, *, #243, .F. ) ;
#29 = AXIS2_PLACEMENT_3D ( 'NONE', #74, #146, #166 ) ;
#30 = PERSON_AND_ORGANIZATION ( #64, #237 ) ;
#31 = DIRECTION ( 'NONE',  ( 3.491481338843133355E-15, -1.049697256412017316E-16, 1.000000000000000000 ) ) ;
#32 = ADVANCED_FACE ( 'NONE', ( #51, #184 ), #81, .T. ) ;
#33 = PERSON_AND_ORGANIZATION ( #64, #237 ) ;
#34 = PLANE ( 'NONE',  #108 ) ;
#35 = APPROVAL_DATE_TIME ( #96, #178 ) ;
#36 = ORIENTED_EDGE ( 'NONE', *, *, #170, .F. ) ;
#37 = CARTESIAN_POINT ( 'NONE',  ( 2.433562493173664138E-13, -7.316389877191761450E-15, 69.70000000000001705 ) ) ;
#38 = COORDINATED_UNIVERSAL_TIME_OFFSET ( 1, 0, .AHEAD. ) ;
#39 = DIRECTION ( 'NONE',  ( -1.874995604299383814E-30, 1.000000000000000000, -5.370200846958112728E-16 ) ) ;
#40 = LOCAL_TIME ( 14, 1, 29.00000000000000000, #217 ) ;
#41 = VERTEX_POINT ( 'NONE', #186 ) ;
#42 = EDGE_CURVE ( 'NONE', #119, #119, #175, .T. ) ;
#43 = CONICAL_SURFACE ( 'NONE', #17, 1.499999999999997558, 0.7853981633974573828 ) ;
#44 = CIRCLE ( 'NONE', #183, 1.424662432702592518 ) ;
#45 = ORIENTED_EDGE ( 'NONE', *, *, #191, .T. ) ;
#46 = EDGE_LOOP ( 'NONE', ( #154 ) ) ;
#47 = AXIS2_PLACEMENT_3D ( 'NONE', #114, #158, #12 ) ;
#48 = ORIENTED_EDGE ( 'NONE', *, *, #243, .T. ) ;
#49 = APPLICATION_CONTEXT ( 'configuration controlled 3d designs of mechanical parts and assemblies' ) ;
#50 = ADVANCED_FACE ( 'NONE', ( #58, #220 ), #240, .T. ) ;
#51 = FACE_OUTER_BOUND ( 'NONE', #86, .T. ) ;
#52 = SHAPE_DEFINITION_REPRESENTATION ( #211, #70 ) ;
#53 = FACE_BOUND ( 'NONE', #227, .T. ) ;
#54 = PERSON_AND_ORGANIZATION ( #64, #237 ) ;
#55 = ORIENTED_EDGE ( 'NONE', *, *, #42, .T. ) ;
#56 = CALENDAR_DATE ( 2021, 26, 11 ) ;
#57 = EDGE_LOOP ( 'NONE', ( #36 ) ) ;
#58 = FACE_OUTER_BOUND ( 'NONE', #172, .T. ) ;
#59 = CLOSED_SHELL ( 'NONE', ( #125, #7, #68, #113, #5 ) ) ;
#60 = AXIS2_PLACEMENT_3D ( 'NONE', #216, #112, #76 ) ;
#61 = PERSON_AND_ORGANIZATION_ROLE ( 'creator' ) ;
#62 = CARTESIAN_POINT ( 'NONE',  ( 3.827718061677192594E-14, 1.568999999999998618, 10.96302024900831285 ) ) ;
#63 = CARTESIAN_POINT ( 'NONE',  ( 3.827718061677192594E-14, 5.887362062644338180E-15, 10.96302024900831285 ) ) ;
#64 = PERSON ( 'UNSPECIFIED', 'UNSPECIFIED', 'UNSPECIFIED', ('UNSPECIFIED'), ('UNSPECIFIED'), ('UNSPECIFIED') ) ;
#65 = CC_DESIGN_PERSON_AND_ORGANIZATION_ASSIGNMENT ( #241, #73, ( #18 ) ) ;
#66 = CARTESIAN_POINT ( 'NONE',  ( 3.869445280877825814E-14, -1.163330317703974832E-15, 11.08253175473057794 ) ) ;
#67 =( GEOMETRIC_REPRESENTATION_CONTEXT ( 3 ) GLOBAL_UNCERTAINTY_ASSIGNED_CONTEXT ( ( #117 ) ) GLOBAL_UNIT_ASSIGNED_CONTEXT ( ( #3, #152, #208 ) ) REPRESENTATION_CONTEXT ( 'NONE', 'WORKASPACE' ) );
#68 = ADVANCED_FACE ( 'NONE', ( #150, #142 ), #223, .T. ) ;
#69 = ORIENTED_EDGE ( 'NONE', *, *, #170, .T. ) ;
#70 = ADVANCED_BREP_SHAPE_REPRESENTATION ( '321217', ( #84, #2, #155 ), #67 ) ;
#71 = MECHANICAL_CONTEXT ( 'NONE', #49, 'mechanical' ) ;
#72 = CARTESIAN_POINT ( 'NONE',  ( 3.827718061677193225E-14, 5.887362062644339757E-15, 10.96302024900831462 ) ) ;
#73 = PERSON_AND_ORGANIZATION_ROLE ( 'creator' ) ;
#74 = CARTESIAN_POINT ( 'NONE',  ( 2.444036937190193601E-13, -7.347880794884121511E-15, 70.00000000000000000 ) ) ;
#75 = CIRCLE ( 'NONE', #104, 1.568999999999992623 ) ;
#76 = DIRECTION ( 'NONE',  ( 0.0000000000000000000, 1.000000000000000000, 0.0000000000000000000 ) ) ;
#77 = EDGE_LOOP ( 'NONE', ( #133 ) ) ;
#78 = CC_DESIGN_DATE_AND_TIME_ASSIGNMENT ( #187, #200, ( #82 ) ) ;
#79 = PERSON_AND_ORGANIZATION ( #64, #237 ) ;
#80 = DIRECTION ( 'NONE',  ( -3.491481338843133355E-15, -5.370200846958112728E-16, -1.000000000000000000 ) ) ;
#81 = CONICAL_SURFACE ( 'NONE', #1, 1.424662432702592518, 0.5235987755982970393 ) ;
#82 = SECURITY_CLASSIFICATION ( '', '', #179 ) ;
#83 = VERTEX_POINT ( 'NONE', #62 ) ;
#84 = MANIFOLD_SOLID_BREP ( 'Corps-Déplacer/Copier1[1]', #59 ) ;
#85 = APPROVAL_PERSON_ORGANIZATION ( #33, #141, #203 ) ;
#86 = EDGE_LOOP ( 'NONE', ( #45 ) ) ;
#87 = CC_DESIGN_PERSON_AND_ORGANIZATION_ASSIGNMENT ( #224, #61, ( #131 ) ) ;
#88 = DIRECTION ( 'NONE',  ( -3.491481338843133355E-15, 1.049697256412017316E-16, -1.000000000000000000 ) ) ;
#89 = LOCAL_TIME ( 14, 1, 29.00000000000000000, #219 ) ;
#90 = FACE_OUTER_BOUND ( 'NONE', #105, .T. ) ;
#91 = CARTESIAN_POINT ( 'NONE',  ( -1.430254690783071919E-30, 1.424662432702592518, -4.096412244485809643E-16 ) ) ;
#92 = DIRECTION ( 'NONE',  ( -1.874995604299384165E-30, 1.000000000000000000, -5.370200846958112728E-16 ) ) ;
#93 = AXIS2_PLACEMENT_3D ( 'NONE', #72, #156, #126 ) ;
#94 = DIRECTION ( 'NONE',  ( 1.000000000000000000, 0.0000000000000000000, 0.0000000000000000000 ) ) ;
#95 = PRODUCT_RELATED_PRODUCT_CATEGORY ( 'detail', '', ( #23 ) ) ;
#96 = DATE_AND_TIME ( #115, #121 ) ;
#97 = CARTESIAN_POINT ( 'NONE',  ( 2.433562493173664138E-13, -7.316389877191761450E-15, 69.70000000000001705 ) ) ;
#98 = CONICAL_SURFACE ( 'NONE', #60, 1.568999999999999728, 0.5235987755982961511 ) ;
#99 = CARTESIAN_POINT ( 'NONE',  ( 3.827718061677192594E-14, 1.568999999999998618, 10.96302024900831285 ) ) ;
#100 = CARTESIAN_POINT ( 'NONE',  ( 8.728703347107862970E-16, 1.342550211739532619E-16, 0.2500000000000008327 ) ) ;
#101 = AXIS2_PLACEMENT_3D ( 'NONE', #107, #144, #218 ) ;
#102 = CC_DESIGN_PERSON_AND_ORGANIZATION_ASSIGNMENT ( #30, #165, ( #23 ) ) ;
#103 = ADVANCED_FACE ( 'NONE', ( #238 ), #222, .T. ) ;
#104 = AXIS2_PLACEMENT_3D ( 'NONE', #63, #80, #151 ) ;
#105 = EDGE_LOOP ( 'NONE', ( #229 ) ) ;
#106 = CLOSED_SHELL ( 'NONE', ( #103, #50, #32, #153 ) ) ;
#107 = CARTESIAN_POINT ( 'NONE',  ( 3.827718061677192594E-14, -1.150785227737341604E-15, 10.96302024900831285 ) ) ;
#108 = AXIS2_PLACEMENT_3D ( 'NONE', #91, #16, #92 ) ;
#109 = COORDINATED_UNIVERSAL_TIME_OFFSET ( 1, 0, .AHEAD. ) ;
#110 = FACE_OUTER_BOUND ( 'NONE', #26, .T. ) ;
#111 = PERSON_AND_ORGANIZATION_ROLE ( 'classification_officer' ) ;
#112 = DIRECTION ( 'NONE',  ( -3.491481338843133355E-15, 1.049697256412017316E-16, -1.000000000000000000 ) ) ;
#113 = ADVANCED_FACE ( 'NONE', ( #53, #195 ), #98, .T. ) ;
#114 = CARTESIAN_POINT ( 'NONE',  ( 3.827718061677193225E-14, 1.568999999999998618, 10.96302024900831462 ) ) ;
#115 = CALENDAR_DATE ( 2021, 26, 11 ) ;
#116 = DIRECTION ( 'NONE',  ( -3.491481338843133355E-15, 1.049697256412017316E-16, -1.000000000000000000 ) ) ;
#117 = UNCERTAINTY_MEASURE_WITH_UNIT (LENGTH_MEASURE( 1.000000000000000082E-05 ), #3, 'distance_accuracy_value', 'NONE');
#118 = APPLICATION_PROTOCOL_DEFINITION ( 'international standard', 'config_control_design', 1994, #49 ) ;
#119 = VERTEX_POINT ( 'NONE', #225 ) ;
#120 = DIRECTION ( 'NONE',  ( 0.0000000000000000000, 1.000000000000000000, 0.0000000000000000000 ) ) ;
#121 = LOCAL_TIME ( 14, 1, 29.00000000000000000, #233 ) ;
#122 = VERTEX_POINT ( 'NONE', #209 ) ;
#123 = EDGE_CURVE ( 'NONE', #83, #83, #196, .T. ) ;
#124 = ORIENTED_EDGE ( 'NONE', *, *, #236, .T. ) ;
#125 = ADVANCED_FACE ( 'NONE', ( #148 ), #128, .T. ) ;
#126 = DIRECTION ( 'NONE',  ( 1.874995604299384165E-30, -1.000000000000000000, 5.370200846958112728E-16 ) ) ;
#127 = DIRECTION ( 'NONE',  ( 0.0000000000000000000, 0.0000000000000000000, 1.000000000000000000 ) ) ;
#128 = PLANE ( 'NONE',  #6 ) ;
#129 = APPROVAL_ROLE ( '' ) ;
#130 = CARTESIAN_POINT ( 'NONE',  ( 0.0000000000000000000, 0.0000000000000000000, 0.0000000000000000000 ) ) ;
#131 = PRODUCT_DEFINITION ( 'UNKNOWN', '', #18, #189 ) ;
#132 = APPLICATION_CONTEXT ( 'configuration controlled 3d designs of mechanical parts and assemblies' ) ;
#133 = ORIENTED_EDGE ( 'NONE', *, *, #42, .F. ) ;
#134 = DIRECTION ( 'NONE',  ( -1.874995604299384165E-30, 1.000000000000000000, -5.370200846958112728E-16 ) ) ;
#135 = PERSON_AND_ORGANIZATION ( #64, #237 ) ;
#136 = DIRECTION ( 'NONE',  ( -3.491481338843133355E-15, -5.370200846958112728E-16, -1.000000000000000000 ) ) ;
#137 = DIRECTION ( 'NONE',  ( 0.0000000000000000000, 1.000000000000000000, 0.0000000000000000000 ) ) ;
#138 = EDGE_LOOP ( 'NONE', ( #139 ) ) ;
#139 = ORIENTED_EDGE ( 'NONE', *, *, #236, .F. ) ;
#140 = LOCAL_TIME ( 14, 1, 29.00000000000000000, #38 ) ;
#141 = APPROVAL ( #185, 'UNSPECIFIED' ) ;
#142 = FACE_OUTER_BOUND ( 'NONE', #213, .T. ) ;
#143 = APPROVAL_DATE_TIME ( #197, #141 ) ;
#144 = DIRECTION ( 'NONE',  ( -3.491481338843133355E-15, 1.049697256412017316E-16, -1.000000000000000000 ) ) ;
#145 = PERSON_AND_ORGANIZATION_ROLE ( 'design_supplier' ) ;
#146 = DIRECTION ( 'NONE',  ( -3.491481338843133355E-15, 1.049697256412017316E-16, -1.000000000000000000 ) ) ;
#147 = CC_DESIGN_APPROVAL ( #178, ( #18 ) ) ;
#148 = FACE_OUTER_BOUND ( 'NONE', #77, .T. ) ;
#149 = DATE_TIME_ROLE ( 'creation_date' ) ;
#150 = FACE_OUTER_BOUND ( 'NONE', #226, .T. ) ;
#151 = DIRECTION ( 'NONE',  ( 0.0000000000000000000, 1.000000000000000000, 0.0000000000000000000 ) ) ;
#152 =( NAMED_UNIT ( * ) PLANE_ANGLE_UNIT ( ) SI_UNIT ( $, .RADIAN. ) );
#153 = ADVANCED_FACE ( 'NONE', ( #110 ), #34, .T. ) ;
#154 = ORIENTED_EDGE ( 'NONE', *, *, #191, .F. ) ;
#155 = AXIS2_PLACEMENT_3D ( 'NONE', #181, #127, #94 ) ;
#156 = DIRECTION ( 'NONE',  ( 3.491481338843133355E-15, 5.370200846958112728E-16, 1.000000000000000000 ) ) ;
#157 = CALENDAR_DATE ( 2021, 26, 11 ) ;
#158 = DIRECTION ( 'NONE',  ( -3.491481338843133355E-15, 1.049697256412017316E-16, -1.000000000000000000 ) ) ;
#159 = DATE_AND_TIME ( #161, #171 ) ;
#160 = EDGE_LOOP ( 'NONE', ( #55 ) ) ;
#161 = CALENDAR_DATE ( 2021, 26, 11 ) ;
#162 = AXIS2_PLACEMENT_3D ( 'NONE', #130, #163, #134 ) ;
#163 = DIRECTION ( 'NONE',  ( -3.491481338843133355E-15, -5.370200846958112728E-16, -1.000000000000000000 ) ) ;
#164 = CC_DESIGN_APPROVAL ( #173, ( #82 ) ) ;
#165 = PERSON_AND_ORGANIZATION_ROLE ( 'design_owner' ) ;
#166 = DIRECTION ( 'NONE',  ( 0.0000000000000000000, 1.000000000000000000, 0.0000000000000000000 ) ) ;
#167 = DIRECTION ( 'NONE',  ( -1.841233216431393758E-30, 1.000000000000000000, -5.528118151615070156E-16 ) ) ;
#168 = CIRCLE ( 'NONE', #193, 1.568999999999998396 ) ;
#169 = DIRECTION ( 'NONE',  ( -3.491481338843133355E-15, -5.370200846958112728E-16, -1.000000000000000000 ) ) ;
#170 = EDGE_CURVE ( 'NONE', #122, #122, #11, .T. ) ;
#171 = LOCAL_TIME ( 14, 1, 29.00000000000000000, #109 ) ;
#172 = EDGE_LOOP ( 'NONE', ( #124 ) ) ;
#173 = APPROVAL ( #21, 'UNSPECIFIED' ) ;
#174 = ORIENTED_EDGE ( 'NONE', *, *, #230, .T. ) ;
#175 = CIRCLE ( 'NONE', #29, 1.199999999999997513 ) ;
#176 = AXIS2_PLACEMENT_3D ( 'NONE', #66, #4, #137 ) ;
#177 = FACE_BOUND ( 'NONE', #160, .T. ) ;
#178 = APPROVAL ( #231, 'UNSPECIFIED' ) ;
#179 = SECURITY_CLASSIFICATION_LEVEL ( 'unclassified' ) ;
#180 = CARTESIAN_POINT ( 'NONE',  ( 2.481962216289511610E-30, 3.817472958469907877E-31, 7.108622316486114852E-16 ) ) ;
#181 = CARTESIAN_POINT ( 'NONE',  ( 0.0000000000000000000, 0.0000000000000000000, 0.0000000000000000000 ) ) ;
#182 = DIRECTION ( 'NONE',  ( -3.664998382197393967E-31, -1.000000000000000000, -1.049697256412017316E-16 ) ) ;
#183 = AXIS2_PLACEMENT_3D ( 'NONE', #190, #169, #39 ) ;
#184 = FACE_BOUND ( 'NONE', #214, .T. ) ;
#185 = APPROVAL_STATUS ( 'not_yet_approved' ) ;
#186 = CARTESIAN_POINT ( 'NONE',  ( -1.892735826383161356E-31, 1.424662432702592518, -5.421010862427522170E-17 ) ) ;
#187 = DATE_AND_TIME ( #206, #140 ) ;
#188 = CARTESIAN_POINT ( 'NONE',  ( 3.869445280877825814E-14, 1.499999999999991562, 11.08253175473057794 ) ) ;
#189 = DESIGN_CONTEXT ( 'detailed design', #132, 'design' ) ;
#190 = CARTESIAN_POINT ( 'NONE',  ( 2.481962216289511610E-30, 3.817472958469907877E-31, 7.108622316486114852E-16 ) ) ;
#191 = EDGE_CURVE ( 'NONE', #207, #207, #168, .T. ) ;
#192 = VERTEX_POINT ( 'NONE', #99 ) ;
#193 = AXIS2_PLACEMENT_3D ( 'NONE', #100, #136, #167 ) ;
#194 = ORIENTED_EDGE ( 'NONE', *, *, #123, .F. ) ;
#195 = FACE_OUTER_BOUND ( 'NONE', #202, .T. ) ;
#196 = CIRCLE ( 'NONE', #101, 1.568999999999999728 ) ;
#197 = DATE_AND_TIME ( #56, #89 ) ;
#198 = APPROVAL_PERSON_ORGANIZATION ( #239, #173, #15 ) ;
#199 = CARTESIAN_POINT ( 'NONE',  ( 2.444036937190193601E-13, -7.347880794884121511E-15, 70.00000000000000000 ) ) ;
#200 = DATE_TIME_ROLE ( 'classification_date' ) ;
#201 = DIRECTION ( 'NONE',  ( 0.0000000000000000000, 1.000000000000000000, 0.0000000000000000000 ) ) ;
#202 = EDGE_LOOP ( 'NONE', ( #194 ) ) ;
#203 = APPROVAL_ROLE ( '' ) ;
#204 = CC_DESIGN_APPROVAL ( #141, ( #131 ) ) ;
#205 = DIRECTION ( 'NONE',  ( 3.491481338843133355E-15, 5.370200846958112728E-16, 1.000000000000000000 ) ) ;
#206 = CALENDAR_DATE ( 2021, 26, 11 ) ;
#207 = VERTEX_POINT ( 'NONE', #22 ) ;
#208 =( NAMED_UNIT ( * ) SI_UNIT ( $, .STERADIAN. ) SOLID_ANGLE_UNIT ( ) );
#209 = CARTESIAN_POINT ( 'NONE',  ( 2.433562493173664138E-13, 1.499999999999990230, 69.70000000000001705 ) ) ;
#210 = CC_DESIGN_SECURITY_CLASSIFICATION ( #82, ( #18 ) ) ;
#211 = PRODUCT_DEFINITION_SHAPE ( 'NONE', 'NONE',  #131 ) ;
#212 = APPROVAL_PERSON_ORGANIZATION ( #135, #178, #129 ) ;
#213 = EDGE_LOOP ( 'NONE', ( #28 ) ) ;
#214 = EDGE_LOOP ( 'NONE', ( #8 ) ) ;
#215 = CC_DESIGN_DATE_AND_TIME_ASSIGNMENT ( #159, #149, ( #131 ) ) ;
#216 = CARTESIAN_POINT ( 'NONE',  ( 3.827718061677192594E-14, -1.150785227737341604E-15, 10.96302024900831285 ) ) ;
#217 = COORDINATED_UNIVERSAL_TIME_OFFSET ( 1, 0, .AHEAD. ) ;
#218 = DIRECTION ( 'NONE',  ( 0.0000000000000000000, 1.000000000000000000, 0.0000000000000000000 ) ) ;
#219 = COORDINATED_UNIVERSAL_TIME_OFFSET ( 1, 0, .AHEAD. ) ;
#220 = FACE_OUTER_BOUND ( 'NONE', #46, .T. ) ;
#221 = APPLICATION_PROTOCOL_DEFINITION ( 'international standard', 'config_control_design', 1994, #132 ) ;
#222 = PLANE ( 'NONE',  #93 ) ;
#223 = CYLINDRICAL_SURFACE ( 'NONE', #27, 1.499999999999995337 ) ;
#224 = PERSON_AND_ORGANIZATION ( #64, #237 ) ;
#225 = CARTESIAN_POINT ( 'NONE',  ( 2.444036937190193601E-13, 1.199999999999990186, 70.00000000000000000 ) ) ;
#226 = EDGE_LOOP ( 'NONE', ( #69 ) ) ;
#227 = EDGE_LOOP ( 'NONE', ( #48 ) ) ;
#228 = AXIS2_PLACEMENT_3D ( 'NONE', #97, #242, #120 ) ;
#229 = ORIENTED_EDGE ( 'NONE', *, *, #123, .T. ) ;
#230 = EDGE_CURVE ( 'NONE', #41, #41, #44, .T. ) ;
#231 = APPROVAL_STATUS ( 'not_yet_approved' ) ;
#232 = FACE_OUTER_BOUND ( 'NONE', #57, .T. ) ;
#233 = COORDINATED_UNIVERSAL_TIME_OFFSET ( 1, 0, .AHEAD. ) ;
#234 = DIRECTION ( 'NONE',  ( 3.664998382197393967E-31, 1.000000000000000000, 1.049697256412017316E-16 ) ) ;
#235 = APPROVAL_DATE_TIME ( #13, #173 ) ;
#236 = EDGE_CURVE ( 'NONE', #192, #192, #75, .T. ) ;
#237 = ORGANIZATION ( 'UNSPECIFIED', 'UNSPECIFIED', '' ) ;
#238 = FACE_OUTER_BOUND ( 'NONE', #138, .T. ) ;
#239 = PERSON_AND_ORGANIZATION ( #64, #237 ) ;
#240 = CYLINDRICAL_SURFACE ( 'NONE', #162, 1.568999999999995509 ) ;
#241 = PERSON_AND_ORGANIZATION ( #64, #237 ) ;
#242 = DIRECTION ( 'NONE',  ( -3.491481338843133355E-15, 1.049697256412017316E-16, -1.000000000000000000 ) ) ;
#243 = EDGE_CURVE ( 'NONE', #24, #24, #9, .T. ) ;
ENDSEC;
END-ISO-10303-21;
