ISO-10303-21;
HEADER;
FILE_DESCRIPTION (( 'STEP AP203' ),
    '1' );
FILE_NAME ('321216.step',
    '2021-11-26T13:01:28',
    ( '' ),
    ( '' ),
    'SwSTEP 2.0',
    'SolidWorks 2019',
    '' );
FILE_SCHEMA (( 'CONFIG_CONTROL_DESIGN' ));
ENDSEC;

DATA;
#1 = DIRECTION ( 'NONE',  ( -3.491481338843133355E-15, -5.364028701467312594E-16, -1.000000000000000000 ) ) ;
#2 = CC_DESIGN_DATE_AND_TIME_ASSIGNMENT ( #165, #125, ( #54 ) ) ;
#3 = FACE_BOUND ( 'NONE', #240, .T. ) ;
#4 = CARTESIAN_POINT ( 'NONE',  ( 3.830741773213470098E-14, 5.885240912166891247E-15, 10.97168050304615861 ) ) ;
#5 = CC_DESIGN_APPROVAL ( #203, ( #54 ) ) ;
#6 = DIRECTION ( 'NONE',  ( -1.872840611219208519E-30, 1.000000000000000000, -5.364028701467312594E-16 ) ) ;
#7 = DIRECTION ( 'NONE',  ( 1.872840611219208869E-30, -1.000000000000000000, 5.364028701467312594E-16 ) ) ;
#8 = CARTESIAN_POINT ( 'NONE',  ( 2.469527875549356218E-30, 3.793982300907693082E-31, 7.073008949168862185E-16 ) ) ;
#9 = EDGE_LOOP ( 'NONE', ( #217 ) ) ;
#10 = APPROVAL_ROLE ( '' ) ;
#11 = APPROVAL_ROLE ( '' ) ;
#12 = AXIS2_PLACEMENT_3D ( 'NONE', #225, #1, #6 ) ;
#13 = AXIS2_PLACEMENT_3D ( 'NONE', #199, #45, #7 ) ;
#14 = DATE_AND_TIME ( #110, #177 ) ;
#15 = ORIENTED_EDGE ( 'NONE', *, *, #71, .T. ) ;
#16 = CARTESIAN_POINT ( 'NONE',  ( 0.0000000000000000000, 0.0000000000000000000, 0.0000000000000000000 ) ) ;
#17 = APPROVAL_PERSON_ORGANIZATION ( #29, #189, #10 ) ;
#18 = ORIENTED_EDGE ( 'NONE', *, *, #108, .T. ) ;
#19 = CARTESIAN_POINT ( 'NONE',  ( 3.830741773213470098E-14, 1.563999999999998725, 10.97168050304615861 ) ) ;
#20 = DIRECTION ( 'NONE',  ( -3.491481338843133355E-15, 1.049697256412017316E-16, -1.000000000000000000 ) ) ;
#21 = ORIENTED_EDGE ( 'NONE', *, *, #185, .T. ) ;
#22 = PRODUCT_DEFINITION_SHAPE ( 'NONE', 'NONE',  #94 ) ;
#23 = CONICAL_SURFACE ( 'NONE', #60, 1.499999999999997558, 0.7853981633974573828 ) ;
#24 = CIRCLE ( 'NONE', #106, 1.499999999999992673 ) ;
#25 = EDGE_LOOP ( 'NONE', ( #105 ) ) ;
#26 = CARTESIAN_POINT ( 'NONE',  ( 3.869445280877825814E-14, -1.163330317703974832E-15, 11.08253175473057794 ) ) ;
#27 = EDGE_LOOP ( 'NONE', ( #134 ) ) ;
#28 = CARTESIAN_POINT ( 'NONE',  ( 2.444036937190193601E-13, -7.347880794884121511E-15, 70.00000000000000000 ) ) ;
#29 = PERSON_AND_ORGANIZATION ( #56, #172 ) ;
#30 = CC_DESIGN_APPROVAL ( #63, ( #94 ) ) ;
#31 = PERSON_AND_ORGANIZATION_ROLE ( 'creator' ) ;
#32 = COORDINATED_UNIVERSAL_TIME_OFFSET ( 1, 0, .AHEAD. ) ;
#33 = ADVANCED_FACE ( 'NONE', ( #59 ), #97, .T. ) ;
#34 = AXIS2_PLACEMENT_3D ( 'NONE', #8, #67, #196 ) ;
#35 = PLANE ( 'NONE',  #241 ) ;
#36 = FACE_OUTER_BOUND ( 'NONE', #27, .T. ) ;
#37 = ADVANCED_FACE ( 'NONE', ( #224 ), #40, .T. ) ;
#38 = AXIS2_PLACEMENT_3D ( 'NONE', #41, #148, #193 ) ;
#39 = CARTESIAN_POINT ( 'NONE',  ( 8.728703347107860998E-16, 1.341007175366832339E-16, 0.2500000000000007772 ) ) ;
#40 = PLANE ( 'NONE',  #162 ) ;
#41 = CARTESIAN_POINT ( 'NONE',  ( 3.830741773213469467E-14, 5.885240912166890458E-15, 10.97168050304615683 ) ) ;
#42 = VERTEX_POINT ( 'NONE', #47 ) ;
#43 =( NAMED_UNIT ( * ) PLANE_ANGLE_UNIT ( ) SI_UNIT ( $, .RADIAN. ) );
#44 = CC_DESIGN_PERSON_AND_ORGANIZATION_ASSIGNMENT ( #166, #147, ( #187 ) ) ;
#45 = DIRECTION ( 'NONE',  ( 3.491481338843133355E-15, 5.364028701467312594E-16, 1.000000000000000000 ) ) ;
#46 = PERSON_AND_ORGANIZATION ( #56, #172 ) ;
#47 = CARTESIAN_POINT ( 'NONE',  ( 8.728703347107831416E-16, 1.563999999999998725, 0.2499999999999999445 ) ) ;
#48 = CC_DESIGN_DATE_AND_TIME_ASSIGNMENT ( #183, #161, ( #94 ) ) ;
#49 = COORDINATED_UNIVERSAL_TIME_OFFSET ( 1, 0, .AHEAD. ) ;
#50 = APPROVAL_DATE_TIME ( #127, #203 ) ;
#51 = EDGE_LOOP ( 'NONE', ( #184 ) ) ;
#52 = CC_DESIGN_PERSON_AND_ORGANIZATION_ASSIGNMENT ( #109, #186, ( #187 ) ) ;
#53 = APPROVAL_ROLE ( '' ) ;
#54 = SECURITY_CLASSIFICATION ( '', '', #74 ) ;
#55 = DIRECTION ( 'NONE',  ( -3.491481338843133355E-15, 1.049697256412017316E-16, -1.000000000000000000 ) ) ;
#56 = PERSON ( 'UNSPECIFIED', 'UNSPECIFIED', 'UNSPECIFIED', ('UNSPECIFIED'), ('UNSPECIFIED'), ('UNSPECIFIED') ) ;
#57 = UNCERTAINTY_MEASURE_WITH_UNIT (LENGTH_MEASURE( 1.000000000000000082E-05 ), #215, 'distance_accuracy_value', 'NONE');
#58 = EDGE_LOOP ( 'NONE', ( #92 ) ) ;
#59 = FACE_OUTER_BOUND ( 'NONE', #9, .T. ) ;
#60 = AXIS2_PLACEMENT_3D ( 'NONE', #205, #55, #129 ) ;
#61 = CIRCLE ( 'NONE', #34, 1.419662432702592625 ) ;
#62 = ORIENTED_EDGE ( 'NONE', *, *, #69, .F. ) ;
#63 = APPROVAL ( #84, 'UNSPECIFIED' ) ;
#64 = EDGE_LOOP ( 'NONE', ( #179 ) ) ;
#65 = CIRCLE ( 'NONE', #190, 1.563999999999998503 ) ;
#66 = CC_DESIGN_SECURITY_CLASSIFICATION ( #54, ( #187 ) ) ;
#67 = DIRECTION ( 'NONE',  ( -3.491481338843133355E-15, -5.364028701467312594E-16, -1.000000000000000000 ) ) ;
#68 = DIRECTION ( 'NONE',  ( 0.0000000000000000000, 1.000000000000000000, 0.0000000000000000000 ) ) ;
#69 = EDGE_CURVE ( 'NONE', #42, #42, #65, .T. ) ;
#70 = PERSON_AND_ORGANIZATION ( #56, #172 ) ;
#71 = EDGE_CURVE ( 'NONE', #104, #104, #80, .T. ) ;
#72 = CONICAL_SURFACE ( 'NONE', #13, 1.419662432702592625, 0.5235987755982971503 ) ;
#73 = DATE_AND_TIME ( #107, #102 ) ;
#74 = SECURITY_CLASSIFICATION_LEVEL ( 'unclassified' ) ;
#75 = CLOSED_SHELL ( 'NONE', ( #33, #111, #146, #160, #130 ) ) ;
#76 = AXIS2_PLACEMENT_3D ( 'NONE', #103, #137, #211 ) ;
#77 = DIRECTION ( 'NONE',  ( -1.847119511880343072E-30, 1.000000000000000000, -5.199179215883178448E-16 ) ) ;
#78 = LOCAL_TIME ( 14, 1, 28.00000000000000000, #32 ) ;
#79 = FACE_OUTER_BOUND ( 'NONE', #227, .T. ) ;
#80 = CIRCLE ( 'NONE', #115, 1.499999999999997558 ) ;
#81 = APPLICATION_PROTOCOL_DEFINITION ( 'international standard', 'config_control_design', 1994, #175 ) ;
#82 = CARTESIAN_POINT ( 'NONE',  ( 3.830741773213469467E-14, 1.563999999999998725, 10.97168050304615683 ) ) ;
#83 = ORIENTED_EDGE ( 'NONE', *, *, #168, .T. ) ;
#84 = APPROVAL_STATUS ( 'not_yet_approved' ) ;
#85 = CC_DESIGN_PERSON_AND_ORGANIZATION_ASSIGNMENT ( #178, #236, ( #218 ) ) ;
#86 = APPROVAL_STATUS ( 'not_yet_approved' ) ;
#87 = ADVANCED_FACE ( 'NONE', ( #209, #117 ), #210, .T. ) ;
#88 = DESIGN_CONTEXT ( 'detailed design', #99, 'design' ) ;
#89 = COORDINATED_UNIVERSAL_TIME_OFFSET ( 1, 0, .AHEAD. ) ;
#90 = AXIS2_PLACEMENT_3D ( 'NONE', #4, #151, #96 ) ;
#91 = AXIS2_PLACEMENT_3D ( 'NONE', #16, #167, #149 ) ;
#92 = ORIENTED_EDGE ( 'NONE', *, *, #108, .F. ) ;
#93 = DIRECTION ( 'NONE',  ( -3.491481338843133355E-15, -5.364028701467312594E-16, -1.000000000000000000 ) ) ;
#94 = PRODUCT_DEFINITION ( 'UNKNOWN', '', #187, #88 ) ;
#95 = PLANE ( 'NONE',  #90 ) ;
#96 = DIRECTION ( 'NONE',  ( 1.872840611219208519E-30, -1.000000000000000000, 5.364028701467312594E-16 ) ) ;
#97 = PLANE ( 'NONE',  #101 ) ;
#98 = CARTESIAN_POINT ( 'NONE',  ( 3.869445280877825814E-14, 1.499999999999991562, 11.08253175473057794 ) ) ;
#99 = APPLICATION_CONTEXT ( 'configuration controlled 3d designs of mechanical parts and assemblies' ) ;
#100 = DIRECTION ( 'NONE',  ( -3.491481338843133355E-15, 1.049697256412017316E-16, -1.000000000000000000 ) ) ;
#101 = AXIS2_PLACEMENT_3D ( 'NONE', #192, #191, #133 ) ;
#102 = LOCAL_TIME ( 14, 1, 28.00000000000000000, #222 ) ;
#103 = CARTESIAN_POINT ( 'NONE',  ( 0.0000000000000000000, 0.0000000000000000000, 0.0000000000000000000 ) ) ;
#104 = VERTEX_POINT ( 'NONE', #154 ) ;
#105 = ORIENTED_EDGE ( 'NONE', *, *, #71, .F. ) ;
#106 = AXIS2_PLACEMENT_3D ( 'NONE', #26, #100, #122 ) ;
#107 = CALENDAR_DATE ( 2021, 26, 11 ) ;
#108 = EDGE_CURVE ( 'NONE', #120, #120, #144, .T. ) ;
#109 = PERSON_AND_ORGANIZATION ( #56, #172 ) ;
#110 = CALENDAR_DATE ( 2021, 26, 11 ) ;
#111 = ADVANCED_FACE ( 'NONE', ( #3, #171 ), #23, .T. ) ;
#112 = DIRECTION ( 'NONE',  ( 3.664998382197393967E-31, 1.000000000000000000, 1.049697256412017316E-16 ) ) ;
#113 = ADVANCED_BREP_SHAPE_REPRESENTATION ( '321216', ( #152, #150, #76 ), #207 ) ;
#114 = EDGE_LOOP ( 'NONE', ( #83 ) ) ;
#115 = AXIS2_PLACEMENT_3D ( 'NONE', #206, #169, #135 ) ;
#116 = EDGE_LOOP ( 'NONE', ( #158 ) ) ;
#117 = FACE_OUTER_BOUND ( 'NONE', #156, .T. ) ;
#118 = FACE_OUTER_BOUND ( 'NONE', #58, .T. ) ;
#119 = CC_DESIGN_PERSON_AND_ORGANIZATION_ASSIGNMENT ( #70, #31, ( #94 ) ) ;
#120 = VERTEX_POINT ( 'NONE', #82 ) ;
#121 = DIRECTION ( 'NONE',  ( -3.491481338843133355E-15, 1.049697256412017316E-16, -1.000000000000000000 ) ) ;
#122 = DIRECTION ( 'NONE',  ( 0.0000000000000000000, 1.000000000000000000, 0.0000000000000000000 ) ) ;
#123 = VERTEX_POINT ( 'NONE', #181 ) ;
#124 = VERTEX_POINT ( 'NONE', #219 ) ;
#125 = DATE_TIME_ROLE ( 'classification_date' ) ;
#126 = ORIENTED_EDGE ( 'NONE', *, *, #226, .F. ) ;
#127 = DATE_AND_TIME ( #145, #78 ) ;
#128 = CALENDAR_DATE ( 2021, 26, 11 ) ;
#129 = DIRECTION ( 'NONE',  ( 0.0000000000000000000, 1.000000000000000000, 0.0000000000000000000 ) ) ;
#130 = ADVANCED_FACE ( 'NONE', ( #230 ), #35, .T. ) ;
#131 = FACE_BOUND ( 'NONE', #51, .T. ) ;
#132 = CLOSED_SHELL ( 'NONE', ( #139, #87, #232, #37 ) ) ;
#133 = DIRECTION ( 'NONE',  ( -3.664998382197393967E-31, -1.000000000000000000, -1.049697256412017316E-16 ) ) ;
#134 = ORIENTED_EDGE ( 'NONE', *, *, #168, .F. ) ;
#135 = DIRECTION ( 'NONE',  ( 0.0000000000000000000, 1.000000000000000000, 0.0000000000000000000 ) ) ;
#136 = PRODUCT_RELATED_PRODUCT_CATEGORY ( 'detail', '', ( #218 ) ) ;
#137 = DIRECTION ( 'NONE',  ( 0.0000000000000000000, 0.0000000000000000000, 1.000000000000000000 ) ) ;
#138 = DIRECTION ( 'NONE',  ( -3.491481338843133355E-15, 1.049697256412017316E-16, -1.000000000000000000 ) ) ;
#139 = ADVANCED_FACE ( 'NONE', ( #118 ), #95, .T. ) ;
#140 = APPLICATION_PROTOCOL_DEFINITION ( 'international standard', 'config_control_design', 1994, #99 ) ;
#141 = MECHANICAL_CONTEXT ( 'NONE', #175, 'mechanical' ) ;
#142 = COORDINATED_UNIVERSAL_TIME_OFFSET ( 1, 0, .AHEAD. ) ;
#143 = CALENDAR_DATE ( 2021, 26, 11 ) ;
#144 = CIRCLE ( 'NONE', #38, 1.563999999999992951 ) ;
#145 = CALENDAR_DATE ( 2021, 26, 11 ) ;
#146 = ADVANCED_FACE ( 'NONE', ( #79, #153 ), #194, .T. ) ;
#147 = PERSON_AND_ORGANIZATION_ROLE ( 'design_supplier' ) ;
#148 = DIRECTION ( 'NONE',  ( -3.491481338843133355E-15, -5.364028701467312594E-16, -1.000000000000000000 ) ) ;
#149 = DIRECTION ( 'NONE',  ( 3.664998382197393967E-31, 1.000000000000000000, 1.049697256412017316E-16 ) ) ;
#150 = MANIFOLD_SOLID_BREP ( 'Corps-Déplacer/Copier1[2]', #132 ) ;
#151 = DIRECTION ( 'NONE',  ( 3.491481338843133355E-15, 5.364028701467312594E-16, 1.000000000000000000 ) ) ;
#152 = MANIFOLD_SOLID_BREP ( 'Corps-Déplacer/Copier1[1]', #75 ) ;
#153 = FACE_OUTER_BOUND ( 'NONE', #198, .T. ) ;
#154 = CARTESIAN_POINT ( 'NONE',  ( 2.433562493173664138E-13, 1.499999999999990230, 69.70000000000001705 ) ) ;
#155 = CARTESIAN_POINT ( 'NONE',  ( 3.830741773213469467E-14, -1.151694292227677130E-15, 10.97168050304615683 ) ) ;
#156 = EDGE_LOOP ( 'NONE', ( #62 ) ) ;
#157 = DIRECTION ( 'NONE',  ( 0.0000000000000000000, 1.000000000000000000, 0.0000000000000000000 ) ) ;
#158 = ORIENTED_EDGE ( 'NONE', *, *, #223, .T. ) ;
#159 = LOCAL_TIME ( 14, 1, 28.00000000000000000, #49 ) ;
#160 = ADVANCED_FACE ( 'NONE', ( #131, #36 ), #163, .T. ) ;
#161 = DATE_TIME_ROLE ( 'creation_date' ) ;
#162 = AXIS2_PLACEMENT_3D ( 'NONE', #173, #93, #208 ) ;
#163 = CONICAL_SURFACE ( 'NONE', #228, 1.563999999999999835, 0.5235987755982937086 ) ;
#164 = CIRCLE ( 'NONE', #201, 1.563999999999999835 ) ;
#165 = DATE_AND_TIME ( #128, #159 ) ;
#166 = PERSON_AND_ORGANIZATION ( #56, #172 ) ;
#167 = DIRECTION ( 'NONE',  ( -3.491481338843133355E-15, 1.049697256412017316E-16, -1.000000000000000000 ) ) ;
#168 = EDGE_CURVE ( 'NONE', #124, #124, #164, .T. ) ;
#169 = DIRECTION ( 'NONE',  ( -3.491481338843133355E-15, 1.049697256412017316E-16, -1.000000000000000000 ) ) ;
#170 = DIRECTION ( 'NONE',  ( -3.491481338843133355E-15, -5.364028701467312594E-16, -1.000000000000000000 ) ) ;
#171 = FACE_OUTER_BOUND ( 'NONE', #25, .T. ) ;
#172 = ORGANIZATION ( 'UNSPECIFIED', 'UNSPECIFIED', '' ) ;
#173 = CARTESIAN_POINT ( 'NONE',  ( -1.424037520412994223E-30, 1.419662432702592625, -4.078605560827183310E-16 ) ) ;
#174 = CARTESIAN_POINT ( 'NONE',  ( 3.830741773213469467E-14, -1.151694292227677130E-15, 10.97168050304615683 ) ) ;
#175 = APPLICATION_CONTEXT ( 'configuration controlled 3d designs of mechanical parts and assemblies' ) ;
#176 = VERTEX_POINT ( 'NONE', #180 ) ;
#177 = LOCAL_TIME ( 14, 1, 28.00000000000000000, #142 ) ;
#178 = PERSON_AND_ORGANIZATION ( #56, #172 ) ;
#179 = ORIENTED_EDGE ( 'NONE', *, *, #69, .T. ) ;
#180 = CARTESIAN_POINT ( 'NONE',  ( 2.444036937190193601E-13, 1.199999999999990186, 70.00000000000000000 ) ) ;
#181 = CARTESIAN_POINT ( 'NONE',  ( -1.892735826383158072E-31, 1.419662432702592625, -5.421010862427522170E-17 ) ) ;
#182 = CC_DESIGN_PERSON_AND_ORGANIZATION_ASSIGNMENT ( #220, #221, ( #54 ) ) ;
#183 = DATE_AND_TIME ( #143, #239 ) ;
#184 = ORIENTED_EDGE ( 'NONE', *, *, #226, .T. ) ;
#185 = EDGE_CURVE ( 'NONE', #176, #176, #234, .T. ) ;
#186 = PERSON_AND_ORGANIZATION_ROLE ( 'creator' ) ;
#187 = PRODUCT_DEFINITION_FORMATION_WITH_SPECIFIED_SOURCE ( 'ANY', '', #218, .NOT_KNOWN. ) ;
#188 = APPROVAL_DATE_TIME ( #73, #63 ) ;
#189 = APPROVAL ( #86, 'UNSPECIFIED' ) ;
#190 = AXIS2_PLACEMENT_3D ( 'NONE', #39, #170, #77 ) ;
#191 = DIRECTION ( 'NONE',  ( 3.491481338843133355E-15, -1.049697256412017316E-16, 1.000000000000000000 ) ) ;
#192 = CARTESIAN_POINT ( 'NONE',  ( 2.444036937190193601E-13, -7.347880794884121511E-15, 70.00000000000000000 ) ) ;
#193 = DIRECTION ( 'NONE',  ( 0.0000000000000000000, 1.000000000000000000, 0.0000000000000000000 ) ) ;
#194 = CYLINDRICAL_SURFACE ( 'NONE', #91, 1.499999999999995337 ) ;
#195 = APPROVAL_PERSON_ORGANIZATION ( #46, #63, #11 ) ;
#196 = DIRECTION ( 'NONE',  ( -1.872840611219208519E-30, 1.000000000000000000, -5.364028701467312594E-16 ) ) ;
#197 = AXIS2_PLACEMENT_3D ( 'NONE', #28, #121, #235 ) ;
#198 = EDGE_LOOP ( 'NONE', ( #126 ) ) ;
#199 = CARTESIAN_POINT ( 'NONE',  ( 2.469527875549356218E-30, 3.793982300907693082E-31, 7.073008949168862185E-16 ) ) ;
#200 = PERSON_AND_ORGANIZATION ( #56, #172 ) ;
#201 = AXIS2_PLACEMENT_3D ( 'NONE', #174, #213, #157 ) ;
#202 = APPROVAL_STATUS ( 'not_yet_approved' ) ;
#203 = APPROVAL ( #202, 'UNSPECIFIED' ) ;
#204 = SHAPE_DEFINITION_REPRESENTATION ( #22, #113 ) ;
#205 = CARTESIAN_POINT ( 'NONE',  ( 2.433562493173664138E-13, -7.316389877191761450E-15, 69.70000000000001705 ) ) ;
#206 = CARTESIAN_POINT ( 'NONE',  ( 2.433562493173664138E-13, -7.316389877191761450E-15, 69.70000000000001705 ) ) ;
#207 =( GEOMETRIC_REPRESENTATION_CONTEXT ( 3 ) GLOBAL_UNCERTAINTY_ASSIGNED_CONTEXT ( ( #57 ) ) GLOBAL_UNIT_ASSIGNED_CONTEXT ( ( #215, #43, #231 ) ) REPRESENTATION_CONTEXT ( 'NONE', 'WORKASPACE' ) );
#208 = DIRECTION ( 'NONE',  ( -1.872840611219208519E-30, 1.000000000000000000, -5.364028701467312594E-16 ) ) ;
#209 = FACE_OUTER_BOUND ( 'NONE', #237, .T. ) ;
#210 = CYLINDRICAL_SURFACE ( 'NONE', #12, 1.563999999999995838 ) ;
#211 = DIRECTION ( 'NONE',  ( 1.000000000000000000, 0.0000000000000000000, 0.0000000000000000000 ) ) ;
#212 = FACE_BOUND ( 'NONE', #214, .T. ) ;
#213 = DIRECTION ( 'NONE',  ( -3.491481338843133355E-15, 1.049697256412017316E-16, -1.000000000000000000 ) ) ;
#214 = EDGE_LOOP ( 'NONE', ( #229 ) ) ;
#215 =( LENGTH_UNIT ( ) NAMED_UNIT ( * ) SI_UNIT ( .MILLI., .METRE. ) );
#216 = APPROVAL_PERSON_ORGANIZATION ( #200, #203, #53 ) ;
#217 = ORIENTED_EDGE ( 'NONE', *, *, #185, .F. ) ;
#218 = PRODUCT ( '321216', '321216', '', ( #141 ) ) ;
#219 = CARTESIAN_POINT ( 'NONE',  ( 3.830741773213469467E-14, 1.563999999999998725, 10.97168050304615683 ) ) ;
#220 = PERSON_AND_ORGANIZATION ( #56, #172 ) ;
#221 = PERSON_AND_ORGANIZATION_ROLE ( 'classification_officer' ) ;
#222 = COORDINATED_UNIVERSAL_TIME_OFFSET ( 1, 0, .AHEAD. ) ;
#223 = EDGE_CURVE ( 'NONE', #123, #123, #61, .T. ) ;
#224 = FACE_OUTER_BOUND ( 'NONE', #116, .T. ) ;
#225 = CARTESIAN_POINT ( 'NONE',  ( 0.0000000000000000000, 0.0000000000000000000, 0.0000000000000000000 ) ) ;
#226 = EDGE_CURVE ( 'NONE', #238, #238, #24, .T. ) ;
#227 = EDGE_LOOP ( 'NONE', ( #15 ) ) ;
#228 = AXIS2_PLACEMENT_3D ( 'NONE', #155, #138, #68 ) ;
#229 = ORIENTED_EDGE ( 'NONE', *, *, #223, .F. ) ;
#230 = FACE_OUTER_BOUND ( 'NONE', #114, .T. ) ;
#231 =( NAMED_UNIT ( * ) SI_UNIT ( $, .STERADIAN. ) SOLID_ANGLE_UNIT ( ) );
#232 = ADVANCED_FACE ( 'NONE', ( #233, #212 ), #72, .T. ) ;
#233 = FACE_OUTER_BOUND ( 'NONE', #64, .T. ) ;
#234 = CIRCLE ( 'NONE', #197, 1.199999999999997513 ) ;
#235 = DIRECTION ( 'NONE',  ( 0.0000000000000000000, 1.000000000000000000, 0.0000000000000000000 ) ) ;
#236 = PERSON_AND_ORGANIZATION_ROLE ( 'design_owner' ) ;
#237 = EDGE_LOOP ( 'NONE', ( #18 ) ) ;
#238 = VERTEX_POINT ( 'NONE', #98 ) ;
#239 = LOCAL_TIME ( 14, 1, 28.00000000000000000, #89 ) ;
#240 = EDGE_LOOP ( 'NONE', ( #21 ) ) ;
#241 = AXIS2_PLACEMENT_3D ( 'NONE', #19, #20, #112 ) ;
#242 = CC_DESIGN_APPROVAL ( #189, ( #187 ) ) ;
#243 = APPROVAL_DATE_TIME ( #14, #189 ) ;
ENDSEC;
END-ISO-10303-21;
