ISO-10303-21;
HEADER;
FILE_DESCRIPTION (( 'STEP AP203' ),
    '1' );
FILE_NAME ('321215.step',
    '2021-11-26T13:01:28',
    ( '' ),
    ( '' ),
    'SwSTEP 2.0',
    'SolidWorks 2019',
    '' );
FILE_SCHEMA (( 'CONFIG_CONTROL_DESIGN' ));
ENDSEC;

DATA;
#1 = CALENDAR_DATE ( 2021, 26, 11 ) ;
#2 = CC_DESIGN_APPROVAL ( #71, ( #118 ) ) ;
#3 = CYLINDRICAL_SURFACE ( 'NONE', #178, 1.558999999999995500 ) ;
#4 = APPROVAL ( #17, 'UNSPECIFIED' ) ;
#5 = DIRECTION ( 'NONE',  ( -1.870689017448386320E-30, 1.000000000000000000, -5.357866291985452169E-16 ) ) ;
#6 =( GEOMETRIC_REPRESENTATION_CONTEXT ( 3 ) GLOBAL_UNCERTAINTY_ASSIGNED_CONTEXT ( ( #222 ) ) GLOBAL_UNIT_ASSIGNED_CONTEXT ( ( #31, #172, #151 ) ) REPRESENTATION_CONTEXT ( 'NONE', 'WORKASPACE' ) );
#7 = CARTESIAN_POINT ( 'NONE',  ( 0.0000000000000000000, 0.0000000000000000000, 0.0000000000000000000 ) ) ;
#8 = ADVANCED_FACE ( 'NONE', ( #163, #210 ), #3, .T. ) ;
#9 = FACE_BOUND ( 'NONE', #181, .T. ) ;
#10 = DIRECTION ( 'NONE',  ( -3.491481338843133355E-15, 1.049697256412017316E-16, -1.000000000000000000 ) ) ;
#11 = AXIS2_PLACEMENT_3D ( 'NONE', #166, #88, #5 ) ;
#12 = DIRECTION ( 'NONE',  ( 0.0000000000000000000, 1.000000000000000000, 0.0000000000000000000 ) ) ;
#13 = CARTESIAN_POINT ( 'NONE',  ( 0.0000000000000000000, 0.0000000000000000000, 0.0000000000000000000 ) ) ;
#14 = APPROVAL_DATE_TIME ( #199, #71 ) ;
#15 = DESIGN_CONTEXT ( 'detailed design', #100, 'design' ) ;
#16 = PERSON_AND_ORGANIZATION ( #224, #133 ) ;
#17 = APPROVAL_STATUS ( 'not_yet_approved' ) ;
#18 = CIRCLE ( 'NONE', #101, 1.499999999999992673 ) ;
#19 = AXIS2_PLACEMENT_3D ( 'NONE', #162, #106, #185 ) ;
#20 = PERSON_AND_ORGANIZATION ( #224, #133 ) ;
#21 = EDGE_LOOP ( 'NONE', ( #242 ) ) ;
#22 = PERSON_AND_ORGANIZATION ( #224, #133 ) ;
#23 = DIRECTION ( 'NONE',  ( -3.491481338843133355E-15, 1.049697256412017316E-16, -1.000000000000000000 ) ) ;
#24 = AXIS2_PLACEMENT_3D ( 'NONE', #74, #128, #87 ) ;
#25 = ADVANCED_FACE ( 'NONE', ( #9, #58 ), #191, .T. ) ;
#26 = DIRECTION ( 'NONE',  ( 3.491481338843133355E-15, 5.357866291985453155E-16, 1.000000000000000000 ) ) ;
#27 = DIRECTION ( 'NONE',  ( 3.491481338843133355E-15, -1.049697256412017316E-16, 1.000000000000000000 ) ) ;
#28 = ADVANCED_FACE ( 'NONE', ( #140 ), #39, .T. ) ;
#29 = EDGE_LOOP ( 'NONE', ( #161 ) ) ;
#30 = CC_DESIGN_APPROVAL ( #56, ( #119 ) ) ;
#31 =( LENGTH_UNIT ( ) NAMED_UNIT ( * ) SI_UNIT ( .MILLI., .METRE. ) );
#32 = CC_DESIGN_PERSON_AND_ORGANIZATION_ASSIGNMENT ( #81, #226, ( #204 ) ) ;
#33 = CARTESIAN_POINT ( 'NONE',  ( 3.869445280877825814E-14, 1.499999999999991562, 11.08253175473057794 ) ) ;
#34 = APPROVAL_ROLE ( '' ) ;
#35 = CC_DESIGN_APPROVAL ( #4, ( #200 ) ) ;
#36 = PERSON_AND_ORGANIZATION ( #224, #133 ) ;
#37 = EDGE_CURVE ( 'NONE', #48, #48, #173, .T. ) ;
#38 = PERSON_AND_ORGANIZATION_ROLE ( 'design_supplier' ) ;
#39 = PLANE ( 'NONE',  #50 ) ;
#40 = DIRECTION ( 'NONE',  ( -1.870689017448386320E-30, 1.000000000000000000, -5.357866291985454141E-16 ) ) ;
#41 = AXIS2_PLACEMENT_3D ( 'NONE', #114, #219, #239 ) ;
#42 = DIRECTION ( 'NONE',  ( -3.491481338843133355E-15, 1.049697256412017316E-16, -1.000000000000000000 ) ) ;
#43 = FACE_OUTER_BOUND ( 'NONE', #83, .T. ) ;
#44 = CARTESIAN_POINT ( 'NONE',  ( 2.444036937190193601E-13, -7.347880794884121511E-15, 70.00000000000000000 ) ) ;
#45 = AXIS2_PLACEMENT_3D ( 'NONE', #168, #171, #169 ) ;
#46 = DIRECTION ( 'NONE',  ( 0.0000000000000000000, 0.0000000000000000000, 1.000000000000000000 ) ) ;
#47 = ADVANCED_FACE ( 'NONE', ( #43 ), #233, .T. ) ;
#48 = VERTEX_POINT ( 'NONE', #77 ) ;
#49 = CONICAL_SURFACE ( 'NONE', #95, 1.499999999999997558, 0.7853981633974573828 ) ;
#50 = AXIS2_PLACEMENT_3D ( 'NONE', #209, #26, #167 ) ;
#51 = EDGE_LOOP ( 'NONE', ( #99 ) ) ;
#52 = DATE_AND_TIME ( #84, #79 ) ;
#53 = DATE_AND_TIME ( #98, #129 ) ;
#54 = CIRCLE ( 'NONE', #19, 1.558999999999999719 ) ;
#55 = ORIENTED_EDGE ( 'NONE', *, *, #193, .F. ) ;
#56 = APPROVAL ( #225, 'UNSPECIFIED' ) ;
#57 = DIRECTION ( 'NONE',  ( -3.491481338843133355E-15, 1.049697256412017316E-16, -1.000000000000000000 ) ) ;
#58 = FACE_OUTER_BOUND ( 'NONE', #21, .T. ) ;
#59 = AXIS2_PLACEMENT_3D ( 'NONE', #105, #42, #187 ) ;
#60 = MANIFOLD_SOLID_BREP ( 'Corps-Déplacer/Copier1[1]', #109 ) ;
#61 = EDGE_LOOP ( 'NONE', ( #126 ) ) ;
#62 = FACE_OUTER_BOUND ( 'NONE', #127, .T. ) ;
#63 = CC_DESIGN_SECURITY_CLASSIFICATION ( #119, ( #200 ) ) ;
#64 = ADVANCED_FACE ( 'NONE', ( #208, #62 ), #49, .T. ) ;
#65 = DIRECTION ( 'NONE',  ( -3.491481338843133355E-15, -5.357866291985453155E-16, -1.000000000000000000 ) ) ;
#66 = CARTESIAN_POINT ( 'NONE',  ( 3.833765484749746971E-14, 5.883119761689440369E-15, 10.98034075708400081 ) ) ;
#67 = VERTEX_POINT ( 'NONE', #212 ) ;
#68 = SHAPE_DEFINITION_REPRESENTATION ( #122, #158 ) ;
#69 = AXIS2_PLACEMENT_3D ( 'NONE', #7, #232, #237 ) ;
#70 = EDGE_LOOP ( 'NONE', ( #145 ) ) ;
#71 = APPROVAL ( #120, 'UNSPECIFIED' ) ;
#72 = FACE_OUTER_BOUND ( 'NONE', #205, .T. ) ;
#73 = CIRCLE ( 'NONE', #11, 1.414662432702592509 ) ;
#74 = CARTESIAN_POINT ( 'NONE',  ( 3.833765484749746971E-14, -1.152603356718013052E-15, 10.98034075708400081 ) ) ;
#75 = DIRECTION ( 'NONE',  ( -3.491481338843133355E-15, -5.357866291985453155E-16, -1.000000000000000000 ) ) ;
#76 = PLANE ( 'NONE',  #45 ) ;
#77 = CARTESIAN_POINT ( 'NONE',  ( 2.444036937190193601E-13, 1.199999999999990186, 70.00000000000000000 ) ) ;
#78 = ADVANCED_FACE ( 'NONE', ( #89 ), #86, .T. ) ;
#79 = LOCAL_TIME ( 14, 1, 28.00000000000000000, #195 ) ;
#80 = COORDINATED_UNIVERSAL_TIME_OFFSET ( 1, 0, .AHEAD. ) ;
#81 = PERSON_AND_ORGANIZATION ( #224, #133 ) ;
#82 = CC_DESIGN_PERSON_AND_ORGANIZATION_ASSIGNMENT ( #103, #241, ( #119 ) ) ;
#83 = EDGE_LOOP ( 'NONE', ( #137 ) ) ;
#84 = CALENDAR_DATE ( 2021, 26, 11 ) ;
#85 = CLOSED_SHELL ( 'NONE', ( #28, #8, #164, #160 ) ) ;
#86 = PLANE ( 'NONE',  #59 ) ;
#87 = DIRECTION ( 'NONE',  ( 0.0000000000000000000, 1.000000000000000000, 0.0000000000000000000 ) ) ;
#88 = DIRECTION ( 'NONE',  ( -3.491481338843133355E-15, -5.357866291985453155E-16, -1.000000000000000000 ) ) ;
#89 = FACE_OUTER_BOUND ( 'NONE', #150, .T. ) ;
#90 = APPROVAL_PERSON_ORGANIZATION ( #155, #4, #34 ) ;
#91 = EDGE_CURVE ( 'NONE', #192, #192, #54, .T. ) ;
#92 = FACE_BOUND ( 'NONE', #202, .T. ) ;
#93 = MECHANICAL_CONTEXT ( 'NONE', #146, 'mechanical' ) ;
#94 = APPLICATION_PROTOCOL_DEFINITION ( 'international standard', 'config_control_design', 1994, #146 ) ;
#95 = AXIS2_PLACEMENT_3D ( 'NONE', #123, #23, #108 ) ;
#96 = DATE_TIME_ROLE ( 'classification_date' ) ;
#97 = EDGE_CURVE ( 'NONE', #67, #67, #73, .T. ) ;
#98 = CALENDAR_DATE ( 2021, 26, 11 ) ;
#99 = ORIENTED_EDGE ( 'NONE', *, *, #37, .T. ) ;
#100 = APPLICATION_CONTEXT ( 'configuration controlled 3d designs of mechanical parts and assemblies' ) ;
#101 = AXIS2_PLACEMENT_3D ( 'NONE', #147, #213, #235 ) ;
#102 = ADVANCED_FACE ( 'NONE', ( #72, #142 ), #231, .T. ) ;
#103 = PERSON_AND_ORGANIZATION ( #224, #133 ) ;
#104 = CIRCLE ( 'NONE', #217, 1.499999999999997558 ) ;
#105 = CARTESIAN_POINT ( 'NONE',  ( 3.833765484749747602E-14, 1.558999999999998609, 10.98034075708400259 ) ) ;
#106 = DIRECTION ( 'NONE',  ( -3.491481338843133355E-15, 1.049697256412017316E-16, -1.000000000000000000 ) ) ;
#107 = CARTESIAN_POINT ( 'NONE',  ( 2.444036937190193601E-13, -7.347880794884121511E-15, 70.00000000000000000 ) ) ;
#108 = DIRECTION ( 'NONE',  ( 0.0000000000000000000, 1.000000000000000000, 0.0000000000000000000 ) ) ;
#109 = CLOSED_SHELL ( 'NONE', ( #47, #64, #102, #25, #78 ) ) ;
#110 = DIRECTION ( 'NONE',  ( 1.000000000000000000, 0.0000000000000000000, 0.0000000000000000000 ) ) ;
#111 = VERTEX_POINT ( 'NONE', #236 ) ;
#112 = AXIS2_PLACEMENT_3D ( 'NONE', #66, #65, #238 ) ;
#113 = AXIS2_PLACEMENT_3D ( 'NONE', #188, #75, #194 ) ;
#114 = CARTESIAN_POINT ( 'NONE',  ( 2.457119893615240425E-30, 3.770582906145516464E-31, 7.037471076472606835E-16 ) ) ;
#115 = FACE_OUTER_BOUND ( 'NONE', #61, .T. ) ;
#116 = APPLICATION_PROTOCOL_DEFINITION ( 'international standard', 'config_control_design', 1994, #100 ) ;
#117 = APPROVAL_ROLE ( '' ) ;
#118 = PRODUCT_DEFINITION ( 'UNKNOWN', '', #200, #15 ) ;
#119 = SECURITY_CLASSIFICATION ( '', '', #157 ) ;
#120 = APPROVAL_STATUS ( 'not_yet_approved' ) ;
#121 = ORIENTED_EDGE ( 'NONE', *, *, #91, .T. ) ;
#122 = PRODUCT_DEFINITION_SHAPE ( 'NONE', 'NONE',  #118 ) ;
#123 = CARTESIAN_POINT ( 'NONE',  ( 2.433562493173664138E-13, -7.316389877191761450E-15, 69.70000000000001705 ) ) ;
#124 = APPROVAL_PERSON_ORGANIZATION ( #36, #71, #139 ) ;
#125 = ORIENTED_EDGE ( 'NONE', *, *, #97, .T. ) ;
#126 = ORIENTED_EDGE ( 'NONE', *, *, #203, .T. ) ;
#127 = EDGE_LOOP ( 'NONE', ( #179 ) ) ;
#128 = DIRECTION ( 'NONE',  ( -3.491481338843133355E-15, 1.049697256412017316E-16, -1.000000000000000000 ) ) ;
#129 = LOCAL_TIME ( 14, 1, 28.00000000000000000, #80 ) ;
#130 = VERTEX_POINT ( 'NONE', #190 ) ;
#131 = MANIFOLD_SOLID_BREP ( 'Corps-Déplacer/Copier1[2]', #85 ) ;
#132 = VERTEX_POINT ( 'NONE', #33 ) ;
#133 = ORGANIZATION ( 'UNSPECIFIED', 'UNSPECIFIED', '' ) ;
#134 = EDGE_LOOP ( 'NONE', ( #55 ) ) ;
#135 = CALENDAR_DATE ( 2021, 26, 11 ) ;
#136 = CIRCLE ( 'NONE', #112, 1.558999999999992614 ) ;
#137 = ORIENTED_EDGE ( 'NONE', *, *, #37, .F. ) ;
#138 = DATE_TIME_ROLE ( 'creation_date' ) ;
#139 = APPROVAL_ROLE ( '' ) ;
#140 = FACE_OUTER_BOUND ( 'NONE', #134, .T. ) ;
#141 = AXIS2_PLACEMENT_3D ( 'NONE', #13, #46, #110 ) ;
#142 = FACE_OUTER_BOUND ( 'NONE', #29, .T. ) ;
#143 = CC_DESIGN_DATE_AND_TIME_ASSIGNMENT ( #52, #138, ( #118 ) ) ;
#144 = DIRECTION ( 'NONE',  ( 0.0000000000000000000, 1.000000000000000000, 0.0000000000000000000 ) ) ;
#145 = ORIENTED_EDGE ( 'NONE', *, *, #203, .F. ) ;
#146 = APPLICATION_CONTEXT ( 'configuration controlled 3d designs of mechanical parts and assemblies' ) ;
#147 = CARTESIAN_POINT ( 'NONE',  ( 3.869445280877825814E-14, -1.163330317703974832E-15, 11.08253175473057794 ) ) ;
#148 = CARTESIAN_POINT ( 'NONE',  ( 2.433562493173664138E-13, -7.316389877191761450E-15, 69.70000000000001705 ) ) ;
#149 = VERTEX_POINT ( 'NONE', #216 ) ;
#150 = EDGE_LOOP ( 'NONE', ( #121 ) ) ;
#151 =( NAMED_UNIT ( * ) SI_UNIT ( $, .STERADIAN. ) SOLID_ANGLE_UNIT ( ) );
#152 = LOCAL_TIME ( 14, 1, 28.00000000000000000, #175 ) ;
#153 = CARTESIAN_POINT ( 'NONE',  ( 3.833765484749746971E-14, 1.558999999999998609, 10.98034075708400081 ) ) ;
#154 = COORDINATED_UNIVERSAL_TIME_OFFSET ( 1, 0, .AHEAD. ) ;
#155 = PERSON_AND_ORGANIZATION ( #224, #133 ) ;
#156 = APPROVAL_DATE_TIME ( #53, #4 ) ;
#157 = SECURITY_CLASSIFICATION_LEVEL ( 'unclassified' ) ;
#158 = ADVANCED_BREP_SHAPE_REPRESENTATION ( '321215', ( #60, #131, #141 ), #6 ) ;
#159 = LOCAL_TIME ( 14, 1, 28.00000000000000000, #154 ) ;
#160 = ADVANCED_FACE ( 'NONE', ( #214 ), #76, .T. ) ;
#161 = ORIENTED_EDGE ( 'NONE', *, *, #234, .F. ) ;
#162 = CARTESIAN_POINT ( 'NONE',  ( 3.833765484749746971E-14, -1.152603356718013052E-15, 10.98034075708400081 ) ) ;
#163 = FACE_OUTER_BOUND ( 'NONE', #183, .T. ) ;
#164 = ADVANCED_FACE ( 'NONE', ( #115, #92 ), #220, .T. ) ;
#165 = AXIS2_PLACEMENT_3D ( 'NONE', #44, #57, #144 ) ;
#166 = CARTESIAN_POINT ( 'NONE',  ( 2.457119893615240425E-30, 3.770582906145516464E-31, 7.037471076472606835E-16 ) ) ;
#167 = DIRECTION ( 'NONE',  ( 1.870689017448386320E-30, -1.000000000000000000, 5.357866291985453155E-16 ) ) ;
#168 = CARTESIAN_POINT ( 'NONE',  ( -1.417833529445936326E-30, 1.414662432702592509, -4.060836624479055635E-16 ) ) ;
#169 = DIRECTION ( 'NONE',  ( -1.870689017448386320E-30, 1.000000000000000000, -5.357866291985453155E-16 ) ) ;
#170 = CC_DESIGN_DATE_AND_TIME_ASSIGNMENT ( #196, #96, ( #119 ) ) ;
#171 = DIRECTION ( 'NONE',  ( -3.491481338843133355E-15, -5.357866291985453155E-16, -1.000000000000000000 ) ) ;
#172 =( NAMED_UNIT ( * ) PLANE_ANGLE_UNIT ( ) SI_UNIT ( $, .RADIAN. ) );
#173 = CIRCLE ( 'NONE', #165, 1.199999999999997513 ) ;
#174 = COORDINATED_UNIVERSAL_TIME_OFFSET ( 1, 0, .AHEAD. ) ;
#175 = COORDINATED_UNIVERSAL_TIME_OFFSET ( 1, 0, .AHEAD. ) ;
#176 = ORIENTED_EDGE ( 'NONE', *, *, #234, .T. ) ;
#177 = DATE_AND_TIME ( #135, #159 ) ;
#178 = AXIS2_PLACEMENT_3D ( 'NONE', #229, #186, #40 ) ;
#179 = ORIENTED_EDGE ( 'NONE', *, *, #189, .F. ) ;
#180 = CALENDAR_DATE ( 2021, 26, 11 ) ;
#181 = EDGE_LOOP ( 'NONE', ( #176 ) ) ;
#182 = CC_DESIGN_PERSON_AND_ORGANIZATION_ASSIGNMENT ( #16, #223, ( #200 ) ) ;
#183 = EDGE_LOOP ( 'NONE', ( #227 ) ) ;
#184 = EDGE_LOOP ( 'NONE', ( #125 ) ) ;
#185 = DIRECTION ( 'NONE',  ( 0.0000000000000000000, 1.000000000000000000, 0.0000000000000000000 ) ) ;
#186 = DIRECTION ( 'NONE',  ( -3.491481338843133355E-15, -5.357866291985453155E-16, -1.000000000000000000 ) ) ;
#187 = DIRECTION ( 'NONE',  ( 3.664998382197393967E-31, 1.000000000000000000, 1.049697256412017316E-16 ) ) ;
#188 = CARTESIAN_POINT ( 'NONE',  ( 8.728703347107860998E-16, 1.339466572996367480E-16, 0.2500000000000007772 ) ) ;
#189 = EDGE_CURVE ( 'NONE', #149, #149, #104, .T. ) ;
#190 = CARTESIAN_POINT ( 'NONE',  ( 8.728703347107831416E-16, 1.558999999999998609, 0.2499999999999999445 ) ) ;
#191 = CONICAL_SURFACE ( 'NONE', #24, 1.558999999999999719, 0.5235987755982950409 ) ;
#192 = VERTEX_POINT ( 'NONE', #153 ) ;
#193 = EDGE_CURVE ( 'NONE', #111, #111, #136, .T. ) ;
#194 = DIRECTION ( 'NONE',  ( -1.853043564195546505E-30, 1.000000000000000000, -5.215853940757724389E-16 ) ) ;
#195 = COORDINATED_UNIVERSAL_TIME_OFFSET ( 1, 0, .AHEAD. ) ;
#196 = DATE_AND_TIME ( #1, #152 ) ;
#197 = ORIENTED_EDGE ( 'NONE', *, *, #97, .F. ) ;
#198 = CC_DESIGN_PERSON_AND_ORGANIZATION_ASSIGNMENT ( #201, #38, ( #200 ) ) ;
#199 = DATE_AND_TIME ( #180, #211 ) ;
#200 = PRODUCT_DEFINITION_FORMATION_WITH_SPECIFIED_SOURCE ( 'ANY', '', #204, .NOT_KNOWN. ) ;
#201 = PERSON_AND_ORGANIZATION ( #224, #133 ) ;
#202 = EDGE_LOOP ( 'NONE', ( #197 ) ) ;
#203 = EDGE_CURVE ( 'NONE', #130, #130, #207, .T. ) ;
#204 = PRODUCT ( '321215', '321215', '', ( #93 ) ) ;
#205 = EDGE_LOOP ( 'NONE', ( #218 ) ) ;
#206 = DIRECTION ( 'NONE',  ( -3.664998382197393967E-31, -1.000000000000000000, -1.049697256412017316E-16 ) ) ;
#207 = CIRCLE ( 'NONE', #113, 1.558999999999998387 ) ;
#208 = FACE_BOUND ( 'NONE', #51, .T. ) ;
#209 = CARTESIAN_POINT ( 'NONE',  ( 3.833765484749747602E-14, 5.883119761689441158E-15, 10.98034075708400259 ) ) ;
#210 = FACE_OUTER_BOUND ( 'NONE', #70, .T. ) ;
#211 = LOCAL_TIME ( 14, 1, 28.00000000000000000, #174 ) ;
#212 = CARTESIAN_POINT ( 'NONE',  ( -1.892735826383161356E-31, 1.414662432702592509, -5.421010862427522170E-17 ) ) ;
#213 = DIRECTION ( 'NONE',  ( -3.491481338843133355E-15, 1.049697256412017316E-16, -1.000000000000000000 ) ) ;
#214 = FACE_OUTER_BOUND ( 'NONE', #184, .T. ) ;
#215 = CC_DESIGN_PERSON_AND_ORGANIZATION_ASSIGNMENT ( #20, #243, ( #118 ) ) ;
#216 = CARTESIAN_POINT ( 'NONE',  ( 2.433562493173664138E-13, 1.499999999999990230, 69.70000000000001705 ) ) ;
#217 = AXIS2_PLACEMENT_3D ( 'NONE', #148, #10, #12 ) ;
#218 = ORIENTED_EDGE ( 'NONE', *, *, #189, .T. ) ;
#219 = DIRECTION ( 'NONE',  ( 3.491481338843133355E-15, 5.357866291985453155E-16, 1.000000000000000000 ) ) ;
#220 = CONICAL_SURFACE ( 'NONE', #41, 1.414662432702592509, 0.5235987755982971503 ) ;
#221 = PRODUCT_RELATED_PRODUCT_CATEGORY ( 'detail', '', ( #204 ) ) ;
#222 = UNCERTAINTY_MEASURE_WITH_UNIT (LENGTH_MEASURE( 1.000000000000000082E-05 ), #31, 'distance_accuracy_value', 'NONE');
#223 = PERSON_AND_ORGANIZATION_ROLE ( 'creator' ) ;
#224 = PERSON ( 'UNSPECIFIED', 'UNSPECIFIED', 'UNSPECIFIED', ('UNSPECIFIED'), ('UNSPECIFIED'), ('UNSPECIFIED') ) ;
#225 = APPROVAL_STATUS ( 'not_yet_approved' ) ;
#226 = PERSON_AND_ORGANIZATION_ROLE ( 'design_owner' ) ;
#227 = ORIENTED_EDGE ( 'NONE', *, *, #193, .T. ) ;
#228 = APPROVAL_PERSON_ORGANIZATION ( #22, #56, #117 ) ;
#229 = CARTESIAN_POINT ( 'NONE',  ( 0.0000000000000000000, 0.0000000000000000000, 0.0000000000000000000 ) ) ;
#230 = AXIS2_PLACEMENT_3D ( 'NONE', #107, #27, #206 ) ;
#231 = CYLINDRICAL_SURFACE ( 'NONE', #69, 1.499999999999995337 ) ;
#232 = DIRECTION ( 'NONE',  ( -3.491481338843133355E-15, 1.049697256412017316E-16, -1.000000000000000000 ) ) ;
#233 = PLANE ( 'NONE',  #230 ) ;
#234 = EDGE_CURVE ( 'NONE', #132, #132, #18, .T. ) ;
#235 = DIRECTION ( 'NONE',  ( 0.0000000000000000000, 1.000000000000000000, 0.0000000000000000000 ) ) ;
#236 = CARTESIAN_POINT ( 'NONE',  ( 3.833765484749746971E-14, 1.558999999999998609, 10.98034075708400081 ) ) ;
#237 = DIRECTION ( 'NONE',  ( 3.664998382197393967E-31, 1.000000000000000000, 1.049697256412017316E-16 ) ) ;
#238 = DIRECTION ( 'NONE',  ( 0.0000000000000000000, 1.000000000000000000, 0.0000000000000000000 ) ) ;
#239 = DIRECTION ( 'NONE',  ( 1.870689017448386320E-30, -1.000000000000000000, 5.357866291985452169E-16 ) ) ;
#240 = APPROVAL_DATE_TIME ( #177, #56 ) ;
#241 = PERSON_AND_ORGANIZATION_ROLE ( 'classification_officer' ) ;
#242 = ORIENTED_EDGE ( 'NONE', *, *, #91, .F. ) ;
#243 = PERSON_AND_ORGANIZATION_ROLE ( 'creator' ) ;
ENDSEC;
END-ISO-10303-21;
