ISO-10303-21;
HEADER;
FILE_DESCRIPTION (( 'STEP AP203' ),
    '1' );
FILE_NAME ('321214.step',
    '2021-11-26T13:01:27',
    ( '' ),
    ( '' ),
    'SwSTEP 2.0',
    'SolidWorks 2019',
    '' );
FILE_SCHEMA (( 'CONFIG_CONTROL_DESIGN' ));
ENDSEC;

DATA;
#1 = DIRECTION ( 'NONE',  ( -3.491481338843133355E-15, 1.049697256412017316E-16, -1.000000000000000000 ) ) ;
#2 = CARTESIAN_POINT ( 'NONE',  ( 8.728703347107829444E-16, 1.553999999999998716, 0.2499999999999998890 ) ) ;
#3 = VERTEX_POINT ( 'NONE', #136 ) ;
#4 = PERSON_AND_ORGANIZATION ( #60, #207 ) ;
#5 = APPLICATION_CONTEXT ( 'configuration controlled 3d designs of mechanical parts and assemblies' ) ;
#6 = APPROVAL_DATE_TIME ( #190, #94 ) ;
#7 = PERSON_AND_ORGANIZATION ( #60, #207 ) ;
#8 = PERSON_AND_ORGANIZATION ( #60, #207 ) ;
#9 = ORIENTED_EDGE ( 'NONE', *, *, #137, .F. ) ;
#10 = CIRCLE ( 'NONE', #162, 1.499999999999992673 ) ;
#11 = CARTESIAN_POINT ( 'NONE',  ( 2.433562493173664138E-13, -7.316389877191761450E-15, 69.70000000000001705 ) ) ;
#12 = EDGE_CURVE ( 'NONE', #99, #99, #10, .T. ) ;
#13 = ORIENTED_EDGE ( 'NONE', *, *, #199, .T. ) ;
#14 = CARTESIAN_POINT ( 'NONE',  ( 3.836789196286024476E-14, 5.880998611211991070E-15, 10.98900101112184480 ) ) ;
#15 = DIRECTION ( 'NONE',  ( 3.491481338843133355E-15, 5.351713595494165829E-16, 1.000000000000000000 ) ) ;
#16 = DIRECTION ( 'NONE',  ( 1.868540814950097077E-30, -1.000000000000000000, 5.351713595494165829E-16 ) ) ;
#17 = CYLINDRICAL_SURFACE ( 'NONE', #234, 1.553999999999995607 ) ;
#18 = CARTESIAN_POINT ( 'NONE',  ( 0.0000000000000000000, 0.0000000000000000000, 0.0000000000000000000 ) ) ;
#19 = AXIS2_PLACEMENT_3D ( 'NONE', #205, #206, #57 ) ;
#20 = APPROVAL_ROLE ( '' ) ;
#21 = CC_DESIGN_PERSON_AND_ORGANIZATION_ASSIGNMENT ( #121, #212, ( #115 ) ) ;
#22 = PERSON_AND_ORGANIZATION ( #60, #207 ) ;
#23 = APPROVAL_ROLE ( '' ) ;
#24 = ADVANCED_BREP_SHAPE_REPRESENTATION ( '321214', ( #66, #56, #51 ), #82 ) ;
#25 = APPROVAL ( #107, 'UNSPECIFIED' ) ;
#26 = DATE_TIME_ROLE ( 'classification_date' ) ;
#27 = AXIS2_PLACEMENT_3D ( 'NONE', #18, #63, #208 ) ;
#28 = PERSON_AND_ORGANIZATION ( #60, #207 ) ;
#29 = CARTESIAN_POINT ( 'NONE',  ( 2.444036937190193601E-13, -7.347880794884121511E-15, 70.00000000000000000 ) ) ;
#30 = ORIENTED_EDGE ( 'NONE', *, *, #158, .F. ) ;
#31 = CARTESIAN_POINT ( 'NONE',  ( 3.836789196286024476E-14, -1.153512421208348578E-15, 10.98900101112184480 ) ) ;
#32 = LOCAL_TIME ( 14, 1, 27.00000000000000000, #105 ) ;
#33 = DIRECTION ( 'NONE',  ( 3.664998382197393967E-31, 1.000000000000000000, 1.049697256412017316E-16 ) ) ;
#34 = ORIENTED_EDGE ( 'NONE', *, *, #237, .T. ) ;
#35 =( LENGTH_UNIT ( ) NAMED_UNIT ( * ) SI_UNIT ( .MILLI., .METRE. ) );
#36 = CARTESIAN_POINT ( 'NONE',  ( 2.433562493173664138E-13, 1.499999999999990230, 69.70000000000001705 ) ) ;
#37 = CYLINDRICAL_SURFACE ( 'NONE', #27, 1.499999999999995337 ) ;
#38 = DIRECTION ( 'NONE',  ( -3.491481338843133355E-15, 1.049697256412017316E-16, -1.000000000000000000 ) ) ;
#39 = DIRECTION ( 'NONE',  ( 1.000000000000000000, 0.0000000000000000000, 0.0000000000000000000 ) ) ;
#40 = APPROVAL_ROLE ( '' ) ;
#41 = PERSON_AND_ORGANIZATION ( #60, #207 ) ;
#42 = CC_DESIGN_PERSON_AND_ORGANIZATION_ASSIGNMENT ( #28, #108, ( #49 ) ) ;
#43 = COORDINATED_UNIVERSAL_TIME_OFFSET ( 1, 0, .AHEAD. ) ;
#44 = CONICAL_SURFACE ( 'NONE', #140, 1.553999999999999826, 0.5235987755982920433 ) ;
#45 = APPLICATION_PROTOCOL_DEFINITION ( 'international standard', 'config_control_design', 1994, #5 ) ;
#46 = CARTESIAN_POINT ( 'NONE',  ( 3.836789196286024476E-14, 1.553999999999998716, 10.98900101112184480 ) ) ;
#47 = DIRECTION ( 'NONE',  ( 0.0000000000000000000, 1.000000000000000000, 0.0000000000000000000 ) ) ;
#48 = CC_DESIGN_APPROVAL ( #94, ( #185 ) ) ;
#49 = PRODUCT ( '321214', '321214', '', ( #172 ) ) ;
#50 = DIRECTION ( 'NONE',  ( -3.664998382197393967E-31, -1.000000000000000000, -1.049697256412017316E-16 ) ) ;
#51 = AXIS2_PLACEMENT_3D ( 'NONE', #231, #139, #39 ) ;
#52 = DIRECTION ( 'NONE',  ( 1.868540814950097427E-30, -1.000000000000000000, 5.351713595494165829E-16 ) ) ;
#53 = AXIS2_PLACEMENT_3D ( 'NONE', #11, #88, #125 ) ;
#54 = APPROVAL_PERSON_ORGANIZATION ( #4, #25, #40 ) ;
#55 = DIRECTION ( 'NONE',  ( -1.868540814950097077E-30, 1.000000000000000000, -5.351713595494165829E-16 ) ) ;
#56 = MANIFOLD_SOLID_BREP ( 'Corps-Déplacer/Copier1[2]', #106 ) ;
#57 = DIRECTION ( 'NONE',  ( -1.868540814950097077E-30, 1.000000000000000000, -5.351713595494165829E-16 ) ) ;
#58 = PRODUCT_RELATED_PRODUCT_CATEGORY ( 'detail', '', ( #49 ) ) ;
#59 = FACE_OUTER_BOUND ( 'NONE', #73, .T. ) ;
#60 = PERSON ( 'UNSPECIFIED', 'UNSPECIFIED', 'UNSPECIFIED', ('UNSPECIFIED'), ('UNSPECIFIED'), ('UNSPECIFIED') ) ;
#61 = CIRCLE ( 'NONE', #90, 1.553999999999992943 ) ;
#62 = CC_DESIGN_DATE_AND_TIME_ASSIGNMENT ( #122, #138, ( #115 ) ) ;
#63 = DIRECTION ( 'NONE',  ( -3.491481338843133355E-15, 1.049697256412017316E-16, -1.000000000000000000 ) ) ;
#64 = SHAPE_DEFINITION_REPRESENTATION ( #134, #24 ) ;
#65 = APPLICATION_PROTOCOL_DEFINITION ( 'international standard', 'config_control_design', 1994, #67 ) ;
#66 = MANIFOLD_SOLID_BREP ( 'Corps-Déplacer/Copier1[1]', #113 ) ;
#67 = APPLICATION_CONTEXT ( 'configuration controlled 3d designs of mechanical parts and assemblies' ) ;
#68 = CIRCLE ( 'NONE', #19, 1.409662432702592838 ) ;
#69 = PERSON_AND_ORGANIZATION ( #60, #207 ) ;
#70 = CIRCLE ( 'NONE', #202, 1.199999999999997513 ) ;
#71 = ADVANCED_FACE ( 'NONE', ( #200, #112 ), #166, .T. ) ;
#72 = CARTESIAN_POINT ( 'NONE',  ( 3.869445280877825814E-14, -1.163330317703974832E-15, 11.08253175473057794 ) ) ;
#73 = EDGE_LOOP ( 'NONE', ( #13 ) ) ;
#74 = PLANE ( 'NONE',  #227 ) ;
#75 = APPROVAL_PERSON_ORGANIZATION ( #22, #146, #23 ) ;
#76 = ADVANCED_FACE ( 'NONE', ( #219 ), #198, .T. ) ;
#77 = EDGE_LOOP ( 'NONE', ( #92 ) ) ;
#78 = DIRECTION ( 'NONE',  ( -3.491481338843133355E-15, 1.049697256412017316E-16, -1.000000000000000000 ) ) ;
#79 = CARTESIAN_POINT ( 'NONE',  ( 8.728703347107859026E-16, 1.337928398873545401E-16, 0.2500000000000007216 ) ) ;
#80 = CARTESIAN_POINT ( 'NONE',  ( 3.836789196286024476E-14, 1.553999999999998716, 10.98900101112184480 ) ) ;
#81 = FACE_OUTER_BOUND ( 'NONE', #142, .T. ) ;
#82 =( GEOMETRIC_REPRESENTATION_CONTEXT ( 3 ) GLOBAL_UNCERTAINTY_ASSIGNED_CONTEXT ( ( #209 ) ) GLOBAL_UNIT_ASSIGNED_CONTEXT ( ( #35, #135, #167 ) ) REPRESENTATION_CONTEXT ( 'NONE', 'WORKASPACE' ) );
#83 = LOCAL_TIME ( 14, 1, 27.00000000000000000, #176 ) ;
#84 = CARTESIAN_POINT ( 'NONE',  ( 2.444036937190193601E-13, -7.347880794884121511E-15, 70.00000000000000000 ) ) ;
#85 = COORDINATED_UNIVERSAL_TIME_OFFSET ( 1, 0, .AHEAD. ) ;
#86 = SECURITY_CLASSIFICATION_LEVEL ( 'unclassified' ) ;
#87 = ORIENTED_EDGE ( 'NONE', *, *, #127, .T. ) ;
#88 = DIRECTION ( 'NONE',  ( -3.491481338843133355E-15, 1.049697256412017316E-16, -1.000000000000000000 ) ) ;
#89 = ORIENTED_EDGE ( 'NONE', *, *, #199, .F. ) ;
#90 = AXIS2_PLACEMENT_3D ( 'NONE', #14, #238, #215 ) ;
#91 = CARTESIAN_POINT ( 'NONE',  ( 2.433562493173664138E-13, -7.316389877191761450E-15, 69.70000000000001705 ) ) ;
#92 = ORIENTED_EDGE ( 'NONE', *, *, #158, .T. ) ;
#93 = FACE_OUTER_BOUND ( 'NONE', #111, .T. ) ;
#94 = APPROVAL ( #156, 'UNSPECIFIED' ) ;
#95 = VERTEX_POINT ( 'NONE', #36 ) ;
#96 = DIRECTION ( 'NONE',  ( 0.0000000000000000000, 1.000000000000000000, 0.0000000000000000000 ) ) ;
#97 = CC_DESIGN_DATE_AND_TIME_ASSIGNMENT ( #157, #26, ( #100 ) ) ;
#98 = DIRECTION ( 'NONE',  ( -1.868540814950097077E-30, 1.000000000000000000, -5.351713595494165829E-16 ) ) ;
#99 = VERTEX_POINT ( 'NONE', #188 ) ;
#100 = SECURITY_CLASSIFICATION ( '', '', #86 ) ;
#101 = AXIS2_PLACEMENT_3D ( 'NONE', #46, #220, #33 ) ;
#102 = AXIS2_PLACEMENT_3D ( 'NONE', #228, #170, #98 ) ;
#103 = DATE_AND_TIME ( #120, #213 ) ;
#104 = ADVANCED_FACE ( 'NONE', ( #128, #147 ), #233, .T. ) ;
#105 = COORDINATED_UNIVERSAL_TIME_OFFSET ( 1, 0, .AHEAD. ) ;
#106 = CLOSED_SHELL ( 'NONE', ( #178, #173, #104, #171 ) ) ;
#107 = APPROVAL_STATUS ( 'not_yet_approved' ) ;
#108 = PERSON_AND_ORGANIZATION_ROLE ( 'design_owner' ) ;
#109 = CIRCLE ( 'NONE', #239, 1.553999999999998494 ) ;
#110 = DIRECTION ( 'NONE',  ( 3.491481338843133355E-15, -1.049697256412017316E-16, 1.000000000000000000 ) ) ;
#111 = EDGE_LOOP ( 'NONE', ( #30 ) ) ;
#112 = FACE_OUTER_BOUND ( 'NONE', #240, .T. ) ;
#113 = CLOSED_SHELL ( 'NONE', ( #132, #71, #217, #189, #76 ) ) ;
#114 = CARTESIAN_POINT ( 'NONE',  ( 2.444036937190193601E-13, 1.199999999999990186, 70.00000000000000000 ) ) ;
#115 = PRODUCT_DEFINITION ( 'UNKNOWN', '', #185, #221 ) ;
#116 = FACE_OUTER_BOUND ( 'NONE', #143, .T. ) ;
#117 = CC_DESIGN_PERSON_AND_ORGANIZATION_ASSIGNMENT ( #8, #175, ( #185 ) ) ;
#118 = FACE_OUTER_BOUND ( 'NONE', #160, .T. ) ;
#119 = FACE_OUTER_BOUND ( 'NONE', #144, .T. ) ;
#120 = CALENDAR_DATE ( 2021, 26, 11 ) ;
#121 = PERSON_AND_ORGANIZATION ( #60, #207 ) ;
#122 = DATE_AND_TIME ( #195, #222 ) ;
#123 = CALENDAR_DATE ( 2021, 26, 11 ) ;
#124 = ORIENTED_EDGE ( 'NONE', *, *, #137, .T. ) ;
#125 = DIRECTION ( 'NONE',  ( 0.0000000000000000000, 1.000000000000000000, 0.0000000000000000000 ) ) ;
#126 = EDGE_LOOP ( 'NONE', ( #124 ) ) ;
#127 = EDGE_CURVE ( 'NONE', #131, #131, #61, .T. ) ;
#128 = FACE_OUTER_BOUND ( 'NONE', #77, .T. ) ;
#129 = AXIS2_PLACEMENT_3D ( 'NONE', #153, #169, #16 ) ;
#130 = FACE_BOUND ( 'NONE', #177, .T. ) ;
#131 = VERTEX_POINT ( 'NONE', #80 ) ;
#132 = ADVANCED_FACE ( 'NONE', ( #197 ), #74, .T. ) ;
#133 = PLANE ( 'NONE',  #102 ) ;
#134 = PRODUCT_DEFINITION_SHAPE ( 'NONE', 'NONE',  #115 ) ;
#135 =( NAMED_UNIT ( * ) PLANE_ANGLE_UNIT ( ) SI_UNIT ( $, .RADIAN. ) );
#136 = CARTESIAN_POINT ( 'NONE',  ( 3.836789196286024476E-14, 1.553999999999998716, 10.98900101112184480 ) ) ;
#137 = EDGE_CURVE ( 'NONE', #95, #95, #151, .T. ) ;
#138 = DATE_TIME_ROLE ( 'creation_date' ) ;
#139 = DIRECTION ( 'NONE',  ( 0.0000000000000000000, 0.0000000000000000000, 1.000000000000000000 ) ) ;
#140 = AXIS2_PLACEMENT_3D ( 'NONE', #226, #1, #96 ) ;
#141 = PERSON_AND_ORGANIZATION_ROLE ( 'classification_officer' ) ;
#142 = EDGE_LOOP ( 'NONE', ( #181 ) ) ;
#143 = EDGE_LOOP ( 'NONE', ( #87 ) ) ;
#144 = EDGE_LOOP ( 'NONE', ( #204 ) ) ;
#145 = ORIENTED_EDGE ( 'NONE', *, *, #237, .F. ) ;
#146 = APPROVAL ( #174, 'UNSPECIFIED' ) ;
#147 = FACE_BOUND ( 'NONE', #164, .T. ) ;
#148 = DIRECTION ( 'NONE',  ( -1.859005737825518957E-30, 1.000000000000000000, -5.232635967594138223E-16 ) ) ;
#149 = DIRECTION ( 'NONE',  ( -3.491481338843133355E-15, -5.351713595494165829E-16, -1.000000000000000000 ) ) ;
#150 = VERTEX_POINT ( 'NONE', #114 ) ;
#151 = CIRCLE ( 'NONE', #53, 1.499999999999997558 ) ;
#152 = CC_DESIGN_APPROVAL ( #25, ( #100 ) ) ;
#153 = CARTESIAN_POINT ( 'NONE',  ( 3.836789196286024476E-14, 5.880998611211991070E-15, 10.98900101112184480 ) ) ;
#154 = EDGE_CURVE ( 'NONE', #3, #3, #179, .T. ) ;
#155 = CALENDAR_DATE ( 2021, 26, 11 ) ;
#156 = APPROVAL_STATUS ( 'not_yet_approved' ) ;
#157 = DATE_AND_TIME ( #211, #32 ) ;
#158 = EDGE_CURVE ( 'NONE', #168, #168, #109, .T. ) ;
#159 = COORDINATED_UNIVERSAL_TIME_OFFSET ( 1, 0, .AHEAD. ) ;
#160 = EDGE_LOOP ( 'NONE', ( #161 ) ) ;
#161 = ORIENTED_EDGE ( 'NONE', *, *, #154, .F. ) ;
#162 = AXIS2_PLACEMENT_3D ( 'NONE', #72, #78, #218 ) ;
#163 = ORIENTED_EDGE ( 'NONE', *, *, #154, .T. ) ;
#164 = EDGE_LOOP ( 'NONE', ( #89 ) ) ;
#165 = DIRECTION ( 'NONE',  ( 0.0000000000000000000, 1.000000000000000000, 0.0000000000000000000 ) ) ;
#166 = CONICAL_SURFACE ( 'NONE', #191, 1.499999999999997558, 0.7853981633974573828 ) ;
#167 =( NAMED_UNIT ( * ) SI_UNIT ( $, .STERADIAN. ) SOLID_ANGLE_UNIT ( ) );
#168 = VERTEX_POINT ( 'NONE', #2 ) ;
#169 = DIRECTION ( 'NONE',  ( 3.491481338843133355E-15, 5.351713595494165829E-16, 1.000000000000000000 ) ) ;
#170 = DIRECTION ( 'NONE',  ( -3.491481338843133355E-15, -5.351713595494165829E-16, -1.000000000000000000 ) ) ;
#171 = ADVANCED_FACE ( 'NONE', ( #59 ), #133, .T. ) ;
#172 = MECHANICAL_CONTEXT ( 'NONE', #67, 'mechanical' ) ;
#173 = ADVANCED_FACE ( 'NONE', ( #116, #93 ), #17, .T. ) ;
#174 = APPROVAL_STATUS ( 'not_yet_approved' ) ;
#175 = PERSON_AND_ORGANIZATION_ROLE ( 'design_supplier' ) ;
#176 = COORDINATED_UNIVERSAL_TIME_OFFSET ( 1, 0, .AHEAD. ) ;
#177 = EDGE_LOOP ( 'NONE', ( #241 ) ) ;
#178 = ADVANCED_FACE ( 'NONE', ( #119 ), #224, .T. ) ;
#179 = CIRCLE ( 'NONE', #184, 1.553999999999999826 ) ;
#180 = CARTESIAN_POINT ( 'NONE',  ( 2.255464625530006785E-30, 3.457157443838598474E-31, 6.459907433666341453E-16 ) ) ;
#181 = ORIENTED_EDGE ( 'NONE', *, *, #12, .F. ) ;
#182 = DIRECTION ( 'NONE',  ( 0.0000000000000000000, 1.000000000000000000, 0.0000000000000000000 ) ) ;
#183 = LOCAL_TIME ( 14, 1, 27.00000000000000000, #85 ) ;
#184 = AXIS2_PLACEMENT_3D ( 'NONE', #31, #236, #182 ) ;
#185 = PRODUCT_DEFINITION_FORMATION_WITH_SPECIFIED_SOURCE ( 'ANY', '', #49, .NOT_KNOWN. ) ;
#186 = EDGE_LOOP ( 'NONE', ( #145 ) ) ;
#187 = AXIS2_PLACEMENT_3D ( 'NONE', #180, #15, #52 ) ;
#188 = CARTESIAN_POINT ( 'NONE',  ( 3.869445280877825814E-14, 1.499999999999991562, 11.08253175473057794 ) ) ;
#189 = ADVANCED_FACE ( 'NONE', ( #130, #118 ), #44, .T. ) ;
#190 = DATE_AND_TIME ( #123, #83 ) ;
#191 = AXIS2_PLACEMENT_3D ( 'NONE', #91, #216, #47 ) ;
#192 = CC_DESIGN_SECURITY_CLASSIFICATION ( #100, ( #185 ) ) ;
#193 = DATE_AND_TIME ( #155, #183 ) ;
#194 = CC_DESIGN_PERSON_AND_ORGANIZATION_ASSIGNMENT ( #7, #232, ( #185 ) ) ;
#195 = CALENDAR_DATE ( 2021, 26, 11 ) ;
#196 = APPROVAL_DATE_TIME ( #103, #146 ) ;
#197 = FACE_OUTER_BOUND ( 'NONE', #186, .T. ) ;
#198 = PLANE ( 'NONE',  #101 ) ;
#199 = EDGE_CURVE ( 'NONE', #242, #242, #68, .T. ) ;
#200 = FACE_BOUND ( 'NONE', #235, .T. ) ;
#201 = EDGE_LOOP ( 'NONE', ( #163 ) ) ;
#202 = AXIS2_PLACEMENT_3D ( 'NONE', #84, #38, #165 ) ;
#203 = APPROVAL_PERSON_ORGANIZATION ( #41, #94, #20 ) ;
#204 = ORIENTED_EDGE ( 'NONE', *, *, #127, .F. ) ;
#205 = CARTESIAN_POINT ( 'NONE',  ( 2.255464625530006785E-30, 3.457157443838598474E-31, 6.459907433666341453E-16 ) ) ;
#206 = DIRECTION ( 'NONE',  ( -3.491481338843133355E-15, -5.351713595494165829E-16, -1.000000000000000000 ) ) ;
#207 = ORGANIZATION ( 'UNSPECIFIED', 'UNSPECIFIED', '' ) ;
#208 = DIRECTION ( 'NONE',  ( 3.664998382197393967E-31, 1.000000000000000000, 1.049697256412017316E-16 ) ) ;
#209 = UNCERTAINTY_MEASURE_WITH_UNIT (LENGTH_MEASURE( 1.000000000000000082E-05 ), #35, 'distance_accuracy_value', 'NONE');
#210 = CARTESIAN_POINT ( 'NONE',  ( -3.785471652766326216E-31, 1.409662432702592838, -1.084202172485504434E-16 ) ) ;
#211 = CALENDAR_DATE ( 2021, 26, 11 ) ;
#212 = PERSON_AND_ORGANIZATION_ROLE ( 'creator' ) ;
#213 = LOCAL_TIME ( 14, 1, 27.00000000000000000, #43 ) ;
#214 = CC_DESIGN_APPROVAL ( #146, ( #115 ) ) ;
#215 = DIRECTION ( 'NONE',  ( 0.0000000000000000000, 1.000000000000000000, 0.0000000000000000000 ) ) ;
#216 = DIRECTION ( 'NONE',  ( -3.491481338843133355E-15, 1.049697256412017316E-16, -1.000000000000000000 ) ) ;
#217 = ADVANCED_FACE ( 'NONE', ( #229, #81 ), #37, .T. ) ;
#218 = DIRECTION ( 'NONE',  ( 0.0000000000000000000, 1.000000000000000000, 0.0000000000000000000 ) ) ;
#219 = FACE_OUTER_BOUND ( 'NONE', #201, .T. ) ;
#220 = DIRECTION ( 'NONE',  ( -3.491481338843133355E-15, 1.049697256412017316E-16, -1.000000000000000000 ) ) ;
#221 = DESIGN_CONTEXT ( 'detailed design', #5, 'design' ) ;
#222 = LOCAL_TIME ( 14, 1, 27.00000000000000000, #159 ) ;
#223 = CC_DESIGN_PERSON_AND_ORGANIZATION_ASSIGNMENT ( #69, #141, ( #100 ) ) ;
#224 = PLANE ( 'NONE',  #129 ) ;
#225 = DIRECTION ( 'NONE',  ( -3.491481338843133355E-15, -5.351713595494165829E-16, -1.000000000000000000 ) ) ;
#226 = CARTESIAN_POINT ( 'NONE',  ( 3.836789196286024476E-14, -1.153512421208348578E-15, 10.98900101112184480 ) ) ;
#227 = AXIS2_PLACEMENT_3D ( 'NONE', #29, #110, #50 ) ;
#228 = CARTESIAN_POINT ( 'NONE',  ( -1.506279478041635620E-30, 1.409662432702592838, -4.314155889318675161E-16 ) ) ;
#229 = FACE_OUTER_BOUND ( 'NONE', #126, .T. ) ;
#230 = APPROVAL_DATE_TIME ( #193, #25 ) ;
#231 = CARTESIAN_POINT ( 'NONE',  ( 0.0000000000000000000, 0.0000000000000000000, 0.0000000000000000000 ) ) ;
#232 = PERSON_AND_ORGANIZATION_ROLE ( 'creator' ) ;
#233 = CONICAL_SURFACE ( 'NONE', #187, 1.409662432702592838, 0.5235987755982964842 ) ;
#234 = AXIS2_PLACEMENT_3D ( 'NONE', #243, #225, #55 ) ;
#235 = EDGE_LOOP ( 'NONE', ( #34 ) ) ;
#236 = DIRECTION ( 'NONE',  ( -3.491481338843133355E-15, 1.049697256412017316E-16, -1.000000000000000000 ) ) ;
#237 = EDGE_CURVE ( 'NONE', #150, #150, #70, .T. ) ;
#238 = DIRECTION ( 'NONE',  ( -3.491481338843133355E-15, -5.351713595494165829E-16, -1.000000000000000000 ) ) ;
#239 = AXIS2_PLACEMENT_3D ( 'NONE', #79, #149, #148 ) ;
#240 = EDGE_LOOP ( 'NONE', ( #9 ) ) ;
#241 = ORIENTED_EDGE ( 'NONE', *, *, #12, .T. ) ;
#242 = VERTEX_POINT ( 'NONE', #210 ) ;
#243 = CARTESIAN_POINT ( 'NONE',  ( 0.0000000000000000000, 0.0000000000000000000, 0.0000000000000000000 ) ) ;
ENDSEC;
END-ISO-10303-21;
