ISO-10303-21;
HEADER;
FILE_DESCRIPTION (( 'STEP AP203' ),
    '1' );
FILE_NAME ('321213.step',
    '2021-11-26T13:11:05',
    ( '' ),
    ( '' ),
    'SwSTEP 2.0',
    'SolidWorks 2019',
    '' );
FILE_SCHEMA (( 'CONFIG_CONTROL_DESIGN' ));
ENDSEC;

DATA;
#1 = APPROVAL_STATUS ( 'not_yet_approved' ) ;
#2 = VERTEX_POINT ( 'NONE', #113 ) ;
#3 = DIRECTION ( 'NONE',  ( -3.491481338843133355E-15, 1.049697256412017316E-16, -1.000000000000000000 ) ) ;
#4 = CIRCLE ( 'NONE', #254, 1.499999999999997558 ) ;
#5 = CARTESIAN_POINT ( 'NONE',  ( 2.433562493173664138E-13, -7.316389877191761450E-15, 69.70000000000001705 ) ) ;
#6 = DATE_AND_TIME ( #100, #88 ) ;
#7 = EDGE_LOOP ( 'NONE', ( #82 ) ) ;
#8 = FACE_BOUND ( 'NONE', #126, .T. ) ;
#9 = DATE_AND_TIME ( #37, #233 ) ;
#10 = EDGE_CURVE ( 'NONE', #179, #179, #225, .T. ) ;
#11 = CARTESIAN_POINT ( 'NONE',  ( 3.839812907822302611E-14, -1.154421485698684105E-15, 10.99766126515969056 ) ) ;
#12 = CONICAL_SURFACE ( 'NONE', #252, 1.548999999999999710, 0.5235987755982952629 ) ;
#13 = DIRECTION ( 'NONE',  ( 3.491481338843133355E-15, 5.345570589047577364E-16, 1.000000000000000000 ) ) ;
#14 = PERSON_AND_ORGANIZATION ( #193, #66 ) ;
#15 = EDGE_CURVE ( 'NONE', #73, #73, #277, .T. ) ;
#16 = ORIENTED_EDGE ( 'NONE', *, *, #135, .F. ) ;
#17 = EDGE_LOOP ( 'NONE', ( #295 ) ) ;
#18 = CARTESIAN_POINT ( 'NONE',  ( 3.839812907822303242E-14, 1.548999999999998822, 10.99766126515969233 ) ) ;
#19 = EDGE_LOOP ( 'NONE', ( #271 ) ) ;
#20 = APPROVAL ( #140, 'UNSPECIFIED' ) ;
#21 = AXIS2_PLACEMENT_3D ( 'NONE', #222, #246, #75 ) ;
#22 = APPLICATION_PROTOCOL_DEFINITION ( 'international standard', 'config_control_design', 1994, #300 ) ;
#23 = FACE_OUTER_BOUND ( 'NONE', #148, .T. ) ;
#24 = AXIS2_PLACEMENT_3D ( 'NONE', #176, #118, #80 ) ;
#25 = AXIS2_PLACEMENT_3D ( 'NONE', #146, #98, #216 ) ;
#26 = CARTESIAN_POINT ( 'NONE',  ( 2.444036937190193601E-13, 1.199999999999990186, 70.00000000000000000 ) ) ;
#27 = DIRECTION ( 'NONE',  ( -1.866395995712831606E-30, 1.000000000000000000, -5.345570589047577364E-16 ) ) ;
#28 = CARTESIAN_POINT ( 'NONE',  ( 0.0000000000000000000, 0.0000000000000000000, 0.0000000000000000000 ) ) ;
#29 = FACE_OUTER_BOUND ( 'NONE', #44, .T. ) ;
#30 = EDGE_LOOP ( 'NONE', ( #218 ) ) ;
#31 = FACE_OUTER_BOUND ( 'NONE', #60, .T. ) ;
#32 = PERSON_AND_ORGANIZATION ( #193, #66 ) ;
#33 = APPROVAL ( #1, 'UNSPECIFIED' ) ;
#34 = ORIENTED_EDGE ( 'NONE', *, *, #111, .T. ) ;
#35 = ADVANCED_FACE ( 'NONE', ( #297 ), #64, .T. ) ;
#36 = CARTESIAN_POINT ( 'NONE',  ( 2.433562493173664138E-13, -7.316389877191761450E-15, 69.70000000000001705 ) ) ;
#37 = CALENDAR_DATE ( 2021, 26, 11 ) ;
#38 = ADVANCED_FACE ( 'NONE', ( #174 ), #151, .T. ) ;
#39 = DIRECTION ( 'NONE',  ( 2.163896063879671835E-30, -1.000000000000000000, 6.018686094198701223E-16 ) ) ;
#40 = PERSON_AND_ORGANIZATION_ROLE ( 'design_supplier' ) ;
#41 = CIRCLE ( 'NONE', #170, 1.404662432702592501 ) ;
#42 = EDGE_LOOP ( 'NONE', ( #197 ) ) ;
#43 = EDGE_LOOP ( 'NONE', ( #59 ) ) ;
#44 = EDGE_LOOP ( 'NONE', ( #106 ) ) ;
#45 = CC_DESIGN_PERSON_AND_ORGANIZATION_ASSIGNMENT ( #278, #239, ( #221 ) ) ;
#46 = CIRCLE ( 'NONE', #286, 1.548999999999992827 ) ;
#47 = COORDINATED_UNIVERSAL_TIME_OFFSET ( 1, 0, .AHEAD. ) ;
#48 = CC_DESIGN_APPROVAL ( #270, ( #150 ) ) ;
#49 = AXIS2_PLACEMENT_3D ( 'NONE', #242, #13, #294 ) ;
#50 = CARTESIAN_POINT ( 'NONE',  ( 3.839812907822302611E-14, -1.154421485698684105E-15, 10.99766126515969056 ) ) ;
#51 =( NAMED_UNIT ( * ) SI_UNIT ( $, .STERADIAN. ) SOLID_ANGLE_UNIT ( ) );
#52 = DIRECTION ( 'NONE',  ( -1.866395995712831256E-30, 1.000000000000000000, -5.345570589047577364E-16 ) ) ;
#53 = AXIS2_PLACEMENT_3D ( 'NONE', #54, #213, #39 ) ;
#54 = CARTESIAN_POINT ( 'NONE',  ( 8.728703347107833388E-14, 1.517883041479706208E-14, 25.00000000000000000 ) ) ;
#55 = APPROVAL_STATUS ( 'not_yet_approved' ) ;
#56 = DIRECTION ( 'NONE',  ( 2.101413018224943268E-30, -1.000000000000000000, 6.018686094198702209E-16 ) ) ;
#57 = FACE_BOUND ( 'NONE', #128, .T. ) ;
#58 = APPROVAL_DATE_TIME ( #6, #270 ) ;
#59 = ORIENTED_EDGE ( 'NONE', *, *, #135, .T. ) ;
#60 = EDGE_LOOP ( 'NONE', ( #97 ) ) ;
#61 = CONICAL_SURFACE ( 'NONE', #68, 2.124999999999982236, 0.1745329251994328645 ) ;
#62 = EDGE_LOOP ( 'NONE', ( #226 ) ) ;
#63 = EDGE_LOOP ( 'NONE', ( #87 ) ) ;
#64 = PLANE ( 'NONE',  #264 ) ;
#65 = ADVANCED_FACE ( 'NONE', ( #85, #251 ), #109, .F. ) ;
#66 = ORGANIZATION ( 'UNSPECIFIED', 'UNSPECIFIED', '' ) ;
#67 = VERTEX_POINT ( 'NONE', #71 ) ;
#68 = AXIS2_PLACEMENT_3D ( 'NONE', #139, #115, #285 ) ;
#69 = CARTESIAN_POINT ( 'NONE',  ( 4.644772697739360493E-32, 1.404662432702592501, 1.330315773441417199E-17 ) ) ;
#70 = CC_DESIGN_DATE_AND_TIME_ASSIGNMENT ( #9, #189, ( #150 ) ) ;
#71 = CARTESIAN_POINT ( 'NONE',  ( 2.433562493173664138E-13, 1.499999999999990230, 69.70000000000001705 ) ) ;
#72 = FACE_OUTER_BOUND ( 'NONE', #173, .T. ) ;
#73 = VERTEX_POINT ( 'NONE', #26 ) ;
#74 = AXIS2_PLACEMENT_3D ( 'NONE', #182, #114, #287 ) ;
#75 = DIRECTION ( 'NONE',  ( 0.0000000000000000000, -1.000000000000000000, 0.0000000000000000000 ) ) ;
#76 = PLANE ( 'NONE',  #49 ) ;
#77 = FACE_OUTER_BOUND ( 'NONE', #145, .T. ) ;
#78 = COORDINATED_UNIVERSAL_TIME_OFFSET ( 1, 0, .AHEAD. ) ;
#79 = AXIS2_PLACEMENT_3D ( 'NONE', #28, #280, #283 ) ;
#80 = DIRECTION ( 'NONE',  ( -1.865006401924374807E-30, 1.000000000000000000, -5.249526335468877423E-16 ) ) ;
#81 = COORDINATED_UNIVERSAL_TIME_OFFSET ( 1, 0, .AHEAD. ) ;
#82 = ORIENTED_EDGE ( 'NONE', *, *, #10, .T. ) ;
#83 = DIRECTION ( 'NONE',  ( 3.491481338843133355E-15, 6.018686094198702209E-16, 1.000000000000000000 ) ) ;
#84 = AXIS2_PLACEMENT_3D ( 'NONE', #5, #167, #123 ) ;
#85 = FACE_OUTER_BOUND ( 'NONE', #201, .T. ) ;
#86 = CC_DESIGN_PERSON_AND_ORGANIZATION_ASSIGNMENT ( #116, #269, ( #150 ) ) ;
#87 = ORIENTED_EDGE ( 'NONE', *, *, #89, .F. ) ;
#88 = LOCAL_TIME ( 14, 11, 5.000000000000000000, #78 ) ;
#89 = EDGE_CURVE ( 'NONE', #2, #2, #289, .T. ) ;
#90 = AXIS2_PLACEMENT_3D ( 'NONE', #290, #164, #52 ) ;
#91 = AXIS2_PLACEMENT_3D ( 'NONE', #104, #227, #177 ) ;
#92 = CC_DESIGN_SECURITY_CLASSIFICATION ( #150, ( #276 ) ) ;
#93 = ADVANCED_FACE ( 'NONE', ( #57, #72 ), #184, .T. ) ;
#94 = CARTESIAN_POINT ( 'NONE',  ( 3.929919511603369589E-14, 6.774474677170842422E-15, 11.25573683548745052 ) ) ;
#95 = VERTEX_POINT ( 'NONE', #108 ) ;
#96 = CYLINDRICAL_SURFACE ( 'NONE', #74, 1.499999999999995337 ) ;
#97 = ORIENTED_EDGE ( 'NONE', *, *, #132, .T. ) ;
#98 = DIRECTION ( 'NONE',  ( 3.491481338843133355E-15, 6.018686094198702209E-16, 1.000000000000000000 ) ) ;
#99 = DIRECTION ( 'NONE',  ( 3.491481338843133355E-15, 6.018686094198702209E-16, 1.000000000000000000 ) ) ;
#100 = CALENDAR_DATE ( 2021, 26, 11 ) ;
#101 = DIRECTION ( 'NONE',  ( 1.866395995712831256E-30, -1.000000000000000000, 5.345570589047577364E-16 ) ) ;
#102 = LOCAL_TIME ( 14, 11, 5.000000000000000000, #121 ) ;
#103 = DIRECTION ( 'NONE',  ( -3.491481338843133355E-15, 1.049697256412017316E-16, -1.000000000000000000 ) ) ;
#104 = CARTESIAN_POINT ( 'NONE',  ( 2.444036937190193601E-13, -7.347880794884121511E-15, 70.00000000000000000 ) ) ;
#105 = DIRECTION ( 'NONE',  ( 3.491481338843133355E-15, -1.049697256412017316E-16, 1.000000000000000000 ) ) ;
#106 = ORIENTED_EDGE ( 'NONE', *, *, #229, .F. ) ;
#107 = CC_DESIGN_APPROVAL ( #20, ( #276 ) ) ;
#108 = CARTESIAN_POINT ( 'NONE',  ( 3.839812907822302611E-14, 1.548999999999998822, 10.99766126515969056 ) ) ;
#109 = TOROIDAL_SURFACE ( 'NONE', #53, 2.399999999999977263, 0.9999999999999965583 ) ;
#110 = CARTESIAN_POINT ( 'NONE',  ( 8.789332284292655368E-14, -1.415192246987760694, 25.17364817766693363 ) ) ;
#111 = EDGE_CURVE ( 'NONE', #206, #206, #248, .T. ) ;
#112 = DATE_AND_TIME ( #134, #293 ) ;
#113 = CARTESIAN_POINT ( 'NONE',  ( 8.728703347107831416E-16, 1.548999999999998822, 0.2499999999999999445 ) ) ;
#114 = DIRECTION ( 'NONE',  ( -3.491481338843133355E-15, 1.049697256412017316E-16, -1.000000000000000000 ) ) ;
#115 = DIRECTION ( 'NONE',  ( 3.491481338843133355E-15, 6.018686094198702209E-16, 1.000000000000000000 ) ) ;
#116 = PERSON_AND_ORGANIZATION ( #193, #66 ) ;
#117 = AXIS2_PLACEMENT_3D ( 'NONE', #205, #257, #236 ) ;
#118 = DIRECTION ( 'NONE',  ( -3.491481338843133355E-15, -5.345570589047577364E-16, -1.000000000000000000 ) ) ;
#119 = DATE_TIME_ROLE ( 'creation_date' ) ;
#120 = DIRECTION ( 'NONE',  ( -3.491481338843133355E-15, 1.049697256412017316E-16, -1.000000000000000000 ) ) ;
#121 = COORDINATED_UNIVERSAL_TIME_OFFSET ( 1, 0, .AHEAD. ) ;
#122 = ADVANCED_FACE ( 'NONE', ( #267, #244 ), #265, .T. ) ;
#123 = DIRECTION ( 'NONE',  ( 0.0000000000000000000, 1.000000000000000000, 0.0000000000000000000 ) ) ;
#124 = APPROVAL_ROLE ( '' ) ;
#125 = CIRCLE ( 'NONE', #155, 1.399999999999993472 ) ;
#126 = EDGE_LOOP ( 'NONE', ( #273 ) ) ;
#127 = DIRECTION ( 'NONE',  ( 0.0000000000000000000, -1.000000000000000000, 0.0000000000000000000 ) ) ;
#128 = EDGE_LOOP ( 'NONE', ( #299 ) ) ;
#129 = ORIENTED_EDGE ( 'NONE', *, *, #132, .F. ) ;
#130 = LOCAL_TIME ( 14, 11, 5.000000000000000000, #81 ) ;
#131 = CARTESIAN_POINT ( 'NONE',  ( 3.929919511603369589E-14, -1.399999999999986811, 11.25573683548745052 ) ) ;
#132 = EDGE_CURVE ( 'NONE', #180, #180, #215, .T. ) ;
#133 = APPROVAL_ROLE ( '' ) ;
#134 = CALENDAR_DATE ( 2021, 26, 11 ) ;
#135 = EDGE_CURVE ( 'NONE', #67, #67, #4, .T. ) ;
#136 = AXIS2_PLACEMENT_3D ( 'NONE', #50, #3, #284 ) ;
#137 = CARTESIAN_POINT ( 'NONE',  ( 2.668104066701756537E-30, 4.084953417567139265E-31, 7.641753765139142727E-16 ) ) ;
#138 = CARTESIAN_POINT ( 'NONE',  ( 8.957261597119120321E-14, -1.499999999999979794, 25.65461684548776233 ) ) ;
#139 = CARTESIAN_POINT ( 'NONE',  ( 1.019483501215131844E-13, 1.757406262999419099E-14, 29.19916798274875802 ) ) ;
#140 = APPROVAL_STATUS ( 'not_yet_approved' ) ;
#141 = FACE_OUTER_BOUND ( 'NONE', #43, .T. ) ;
#142 = PERSON_AND_ORGANIZATION_ROLE ( 'creator' ) ;
#143 = CARTESIAN_POINT ( 'NONE',  ( 0.0000000000000000000, 0.0000000000000000000, 0.0000000000000000000 ) ) ;
#144 = APPROVAL_DATE_TIME ( #187, #20 ) ;
#145 = EDGE_LOOP ( 'NONE', ( #129 ) ) ;
#146 = CARTESIAN_POINT ( 'NONE',  ( 8.728703347107833388E-14, 1.504671523549675690E-14, 25.00000000000000000 ) ) ;
#147 = PERSON_AND_ORGANIZATION ( #193, #66 ) ;
#148 = EDGE_LOOP ( 'NONE', ( #298 ) ) ;
#149 = CARTESIAN_POINT ( 'NONE',  ( 8.789332284292655368E-14, 1.515122862271744924E-14, 25.17364817766693363 ) ) ;
#150 = SECURITY_CLASSIFICATION ( '', '', #217 ) ;
#151 = PLANE ( 'NONE',  #301 ) ;
#152 = EDGE_LOOP ( 'NONE', ( #196 ) ) ;
#153 = DIRECTION ( 'NONE',  ( -3.664998382197393967E-31, -1.000000000000000000, -1.049697256412017316E-16 ) ) ;
#154 = AXIS2_PLACEMENT_3D ( 'NONE', #143, #99, #56 ) ;
#155 = AXIS2_PLACEMENT_3D ( 'NONE', #94, #160, #235 ) ;
#156 = APPLICATION_PROTOCOL_DEFINITION ( 'international standard', 'config_control_design', 1994, #192 ) ;
#157 = ADVANCED_FACE ( 'NONE', ( #29 ), #76, .T. ) ;
#158 = VERTEX_POINT ( 'NONE', #131 ) ;
#159 = DIRECTION ( 'NONE',  ( 0.0000000000000000000, 1.000000000000000000, 0.0000000000000000000 ) ) ;
#160 = DIRECTION ( 'NONE',  ( 3.491481338843133355E-15, 6.018686094198702209E-16, 1.000000000000000000 ) ) ;
#161 = APPROVAL_PERSON_ORGANIZATION ( #147, #20, #266 ) ;
#162 = DIRECTION ( 'NONE',  ( 3.491481338843133355E-15, 5.345570589047577364E-16, 1.000000000000000000 ) ) ;
#163 = CARTESIAN_POINT ( 'NONE',  ( 3.839812907822302611E-14, 1.548999999999998822, 10.99766126515969056 ) ) ;
#164 = DIRECTION ( 'NONE',  ( -3.491481338843133355E-15, -5.345570589047577364E-16, -1.000000000000000000 ) ) ;
#165 = CALENDAR_DATE ( 2021, 26, 11 ) ;
#166 = ADVANCED_FACE ( 'NONE', ( #219, #268 ), #12, .T. ) ;
#167 = DIRECTION ( 'NONE',  ( -3.491481338843133355E-15, 1.049697256412017316E-16, -1.000000000000000000 ) ) ;
#168 = SHAPE_DEFINITION_REPRESENTATION ( #195, #169 ) ;
#169 = ADVANCED_BREP_SHAPE_REPRESENTATION ( '321213', ( #232, #231, #117 ), #191 ) ;
#170 = AXIS2_PLACEMENT_3D ( 'NONE', #188, #240, #27 ) ;
#171 = FACE_OUTER_BOUND ( 'NONE', #274, .T. ) ;
#172 = CALENDAR_DATE ( 2021, 26, 11 ) ;
#173 = EDGE_LOOP ( 'NONE', ( #16 ) ) ;
#174 = FACE_OUTER_BOUND ( 'NONE', #272, .T. ) ;
#175 = CIRCLE ( 'NONE', #25, 1.399999999999980815 ) ;
#176 = CARTESIAN_POINT ( 'NONE',  ( 8.728703347107860998E-16, 1.336392647261898532E-16, 0.2500000000000007772 ) ) ;
#177 = DIRECTION ( 'NONE',  ( 0.0000000000000000000, 1.000000000000000000, 0.0000000000000000000 ) ) ;
#178 = CC_DESIGN_PERSON_AND_ORGANIZATION_ASSIGNMENT ( #32, #142, ( #237 ) ) ;
#179 = VERTEX_POINT ( 'NONE', #110 ) ;
#180 = VERTEX_POINT ( 'NONE', #138 ) ;
#181 = FACE_OUTER_BOUND ( 'NONE', #63, .T. ) ;
#182 = CARTESIAN_POINT ( 'NONE',  ( 0.0000000000000000000, 0.0000000000000000000, 0.0000000000000000000 ) ) ;
#183 =( NAMED_UNIT ( * ) PLANE_ANGLE_UNIT ( ) SI_UNIT ( $, .RADIAN. ) );
#184 = CONICAL_SURFACE ( 'NONE', #84, 1.499999999999997558, 0.7853981633974573828 ) ;
#185 = DIRECTION ( 'NONE',  ( -3.491481338843133355E-15, -5.345570589047577364E-16, -1.000000000000000000 ) ) ;
#186 = DIRECTION ( 'NONE',  ( 0.0000000000000000000, 1.000000000000000000, 0.0000000000000000000 ) ) ;
#187 = DATE_AND_TIME ( #172, #130 ) ;
#188 = CARTESIAN_POINT ( 'NONE',  ( 2.668104066701756537E-30, 4.084953417567139265E-31, 7.641753765139142727E-16 ) ) ;
#189 = DATE_TIME_ROLE ( 'classification_date' ) ;
#190 = ADVANCED_FACE ( 'NONE', ( #171, #8 ), #200, .T. ) ;
#191 =( GEOMETRIC_REPRESENTATION_CONTEXT ( 3 ) GLOBAL_UNCERTAINTY_ASSIGNED_CONTEXT ( ( #207 ) ) GLOBAL_UNIT_ASSIGNED_CONTEXT ( ( #234, #183, #51 ) ) REPRESENTATION_CONTEXT ( 'NONE', 'WORKASPACE' ) );
#192 = APPLICATION_CONTEXT ( 'configuration controlled 3d designs of mechanical parts and assemblies' ) ;
#193 = PERSON ( 'UNSPECIFIED', 'UNSPECIFIED', 'UNSPECIFIED', ('UNSPECIFIED'), ('UNSPECIFIED'), ('UNSPECIFIED') ) ;
#194 = ORIENTED_EDGE ( 'NONE', *, *, #228, .T. ) ;
#195 = PRODUCT_DEFINITION_SHAPE ( 'NONE', 'NONE',  #237 ) ;
#196 = ORIENTED_EDGE ( 'NONE', *, *, #230, .T. ) ;
#197 = ORIENTED_EDGE ( 'NONE', *, *, #15, .F. ) ;
#198 = APPROVAL_PERSON_ORGANIZATION ( #214, #270, #124 ) ;
#199 = DIRECTION ( 'NONE',  ( -3.491481338843133355E-15, 1.049697256412017316E-16, -1.000000000000000000 ) ) ;
#200 = CONICAL_SURFACE ( 'NONE', #260, 1.404662432702592501, 0.5235987755982972613 ) ;
#201 = EDGE_LOOP ( 'NONE', ( #194 ) ) ;
#202 = CC_DESIGN_PERSON_AND_ORGANIZATION_ASSIGNMENT ( #14, #40, ( #276 ) ) ;
#203 = CLOSED_SHELL ( 'NONE', ( #259, #35, #93, #282, #65, #122, #38, #166 ) ) ;
#204 = APPROVAL_PERSON_ORGANIZATION ( #255, #33, #133 ) ;
#205 = CARTESIAN_POINT ( 'NONE',  ( 0.0000000000000000000, 0.0000000000000000000, 0.0000000000000000000 ) ) ;
#206 = VERTEX_POINT ( 'NONE', #163 ) ;
#207 = UNCERTAINTY_MEASURE_WITH_UNIT (LENGTH_MEASURE( 1.000000000000000082E-05 ), #234, 'distance_accuracy_value', 'NONE');
#208 = APPROVAL_DATE_TIME ( #112, #33 ) ;
#209 = PRODUCT_RELATED_PRODUCT_CATEGORY ( 'detail', '', ( #221 ) ) ;
#210 = CARTESIAN_POINT ( 'NONE',  ( 8.728703347107833388E-14, -1.399999999999965938, 25.00000000000000000 ) ) ;
#211 = CARTESIAN_POINT ( 'NONE',  ( 3.839812907822302611E-14, 5.878877460734540981E-15, 10.99766126515969056 ) ) ;
#212 = MECHANICAL_CONTEXT ( 'NONE', #300, 'mechanical' ) ;
#213 = DIRECTION ( 'NONE',  ( 3.491481338843133355E-15, 6.018686094198702209E-16, 1.000000000000000000 ) ) ;
#214 = PERSON_AND_ORGANIZATION ( #193, #66 ) ;
#215 = CIRCLE ( 'NONE', #21, 1.499999999999995337 ) ;
#216 = DIRECTION ( 'NONE',  ( 0.0000000000000000000, -1.000000000000000000, 0.0000000000000000000 ) ) ;
#217 = SECURITY_CLASSIFICATION_LEVEL ( 'unclassified' ) ;
#218 = ORIENTED_EDGE ( 'NONE', *, *, #228, .F. ) ;
#219 = FACE_OUTER_BOUND ( 'NONE', #19, .T. ) ;
#220 = PERSON_AND_ORGANIZATION_ROLE ( 'creator' ) ;
#221 = PRODUCT ( '321213', '321213', '', ( #212 ) ) ;
#222 = CARTESIAN_POINT ( 'NONE',  ( 8.957261597119120321E-14, 1.544070856599329525E-14, 25.65461684548776233 ) ) ;
#223 = DATE_AND_TIME ( #165, #102 ) ;
#224 = ORIENTED_EDGE ( 'NONE', *, *, #89, .T. ) ;
#225 = CIRCLE ( 'NONE', #245, 1.415192246987776015 ) ;
#226 = ORIENTED_EDGE ( 'NONE', *, *, #292, .T. ) ;
#227 = DIRECTION ( 'NONE',  ( -3.491481338843133355E-15, 1.049697256412017316E-16, -1.000000000000000000 ) ) ;
#228 = EDGE_CURVE ( 'NONE', #302, #302, #175, .T. ) ;
#229 = EDGE_CURVE ( 'NONE', #95, #95, #46, .T. ) ;
#230 = EDGE_CURVE ( 'NONE', #241, #241, #41, .T. ) ;
#231 = MANIFOLD_SOLID_BREP ( 'Corps-Déplacer/Copier1[2]', #253 ) ;
#232 = MANIFOLD_SOLID_BREP ( 'Corps-Déplacer/Copier1[1]', #203 ) ;
#233 = LOCAL_TIME ( 14, 11, 5.000000000000000000, #291 ) ;
#234 =( LENGTH_UNIT ( ) NAMED_UNIT ( * ) SI_UNIT ( .MILLI., .METRE. ) );
#235 = DIRECTION ( 'NONE',  ( 0.0000000000000000000, -1.000000000000000000, 0.0000000000000000000 ) ) ;
#236 = DIRECTION ( 'NONE',  ( 1.000000000000000000, 0.0000000000000000000, 0.0000000000000000000 ) ) ;
#237 = PRODUCT_DEFINITION ( 'UNKNOWN', '', #276, #263 ) ;
#238 = CC_DESIGN_APPROVAL ( #33, ( #237 ) ) ;
#239 = PERSON_AND_ORGANIZATION_ROLE ( 'design_owner' ) ;
#240 = DIRECTION ( 'NONE',  ( -3.491481338843133355E-15, -5.345570589047577364E-16, -1.000000000000000000 ) ) ;
#241 = VERTEX_POINT ( 'NONE', #69 ) ;
#242 = CARTESIAN_POINT ( 'NONE',  ( 3.839812907822303242E-14, 5.878877460734541770E-15, 10.99766126515969233 ) ) ;
#243 = FACE_BOUND ( 'NONE', #7, .T. ) ;
#244 = FACE_OUTER_BOUND ( 'NONE', #30, .T. ) ;
#245 = AXIS2_PLACEMENT_3D ( 'NONE', #149, #83, #127 ) ;
#246 = DIRECTION ( 'NONE',  ( 3.491481338843133355E-15, 6.018686094198702209E-16, 1.000000000000000000 ) ) ;
#247 = PERSON_AND_ORGANIZATION ( #193, #66 ) ;
#248 = CIRCLE ( 'NONE', #136, 1.548999999999999710 ) ;
#249 = DIRECTION ( 'NONE',  ( 3.664998382197393967E-31, 1.000000000000000000, 1.049697256412017316E-16 ) ) ;
#250 = EDGE_LOOP ( 'NONE', ( #275 ) ) ;
#251 = FACE_OUTER_BOUND ( 'NONE', #250, .T. ) ;
#252 = AXIS2_PLACEMENT_3D ( 'NONE', #11, #103, #261 ) ;
#253 = CLOSED_SHELL ( 'NONE', ( #157, #303, #190, #281 ) ) ;
#254 = AXIS2_PLACEMENT_3D ( 'NONE', #36, #120, #159 ) ;
#255 = PERSON_AND_ORGANIZATION ( #193, #66 ) ;
#256 = CC_DESIGN_DATE_AND_TIME_ASSIGNMENT ( #223, #119, ( #237 ) ) ;
#257 = DIRECTION ( 'NONE',  ( 0.0000000000000000000, 0.0000000000000000000, 1.000000000000000000 ) ) ;
#258 = CYLINDRICAL_SURFACE ( 'NONE', #79, 1.548999999999995714 ) ;
#259 = ADVANCED_FACE ( 'NONE', ( #141, #31 ), #96, .T. ) ;
#260 = AXIS2_PLACEMENT_3D ( 'NONE', #137, #162, #101 ) ;
#261 = DIRECTION ( 'NONE',  ( 0.0000000000000000000, 1.000000000000000000, 0.0000000000000000000 ) ) ;
#262 = FACE_OUTER_BOUND ( 'NONE', #152, .T. ) ;
#263 = DESIGN_CONTEXT ( 'detailed design', #192, 'design' ) ;
#264 = AXIS2_PLACEMENT_3D ( 'NONE', #296, #105, #153 ) ;
#265 = CYLINDRICAL_SURFACE ( 'NONE', #154, 1.399999999999987255 ) ;
#266 = APPROVAL_ROLE ( '' ) ;
#267 = FACE_OUTER_BOUND ( 'NONE', #62, .T. ) ;
#268 = FACE_BOUND ( 'NONE', #17, .T. ) ;
#269 = PERSON_AND_ORGANIZATION_ROLE ( 'classification_officer' ) ;
#270 = APPROVAL ( #55, 'UNSPECIFIED' ) ;
#271 = ORIENTED_EDGE ( 'NONE', *, *, #111, .F. ) ;
#272 = EDGE_LOOP ( 'NONE', ( #34 ) ) ;
#273 = ORIENTED_EDGE ( 'NONE', *, *, #230, .F. ) ;
#274 = EDGE_LOOP ( 'NONE', ( #224 ) ) ;
#275 = ORIENTED_EDGE ( 'NONE', *, *, #10, .F. ) ;
#276 = PRODUCT_DEFINITION_FORMATION_WITH_SPECIFIED_SOURCE ( 'ANY', '', #221, .NOT_KNOWN. ) ;
#277 = CIRCLE ( 'NONE', #91, 1.199999999999997513 ) ;
#278 = PERSON_AND_ORGANIZATION ( #193, #66 ) ;
#279 = CC_DESIGN_PERSON_AND_ORGANIZATION_ASSIGNMENT ( #247, #220, ( #276 ) ) ;
#280 = DIRECTION ( 'NONE',  ( -3.491481338843133355E-15, -5.345570589047577364E-16, -1.000000000000000000 ) ) ;
#281 = ADVANCED_FACE ( 'NONE', ( #262 ), #288, .T. ) ;
#282 = ADVANCED_FACE ( 'NONE', ( #77, #243 ), #61, .T. ) ;
#283 = DIRECTION ( 'NONE',  ( -1.866395995712831256E-30, 1.000000000000000000, -5.345570589047577364E-16 ) ) ;
#284 = DIRECTION ( 'NONE',  ( 0.0000000000000000000, 1.000000000000000000, 0.0000000000000000000 ) ) ;
#285 = DIRECTION ( 'NONE',  ( 0.0000000000000000000, -1.000000000000000000, 0.0000000000000000000 ) ) ;
#286 = AXIS2_PLACEMENT_3D ( 'NONE', #211, #185, #186 ) ;
#287 = DIRECTION ( 'NONE',  ( 3.664998382197393967E-31, 1.000000000000000000, 1.049697256412017316E-16 ) ) ;
#288 = PLANE ( 'NONE',  #90 ) ;
#289 = CIRCLE ( 'NONE', #24, 1.548999999999998600 ) ;
#290 = CARTESIAN_POINT ( 'NONE',  ( -1.287604306373484587E-30, 1.404662432702592501, -3.687845305225429644E-16 ) ) ;
#291 = COORDINATED_UNIVERSAL_TIME_OFFSET ( 1, 0, .AHEAD. ) ;
#292 = EDGE_CURVE ( 'NONE', #158, #158, #125, .T. ) ;
#293 = LOCAL_TIME ( 14, 11, 5.000000000000000000, #47 ) ;
#294 = DIRECTION ( 'NONE',  ( 1.866395995712831256E-30, -1.000000000000000000, 5.345570589047577364E-16 ) ) ;
#295 = ORIENTED_EDGE ( 'NONE', *, *, #292, .F. ) ;
#296 = CARTESIAN_POINT ( 'NONE',  ( 2.444036937190193601E-13, -7.347880794884121511E-15, 70.00000000000000000 ) ) ;
#297 = FACE_OUTER_BOUND ( 'NONE', #42, .T. ) ;
#298 = ORIENTED_EDGE ( 'NONE', *, *, #229, .T. ) ;
#299 = ORIENTED_EDGE ( 'NONE', *, *, #15, .T. ) ;
#300 = APPLICATION_CONTEXT ( 'configuration controlled 3d designs of mechanical parts and assemblies' ) ;
#301 = AXIS2_PLACEMENT_3D ( 'NONE', #18, #199, #249 ) ;
#302 = VERTEX_POINT ( 'NONE', #210 ) ;
#303 = ADVANCED_FACE ( 'NONE', ( #23, #181 ), #258, .T. ) ;
ENDSEC;
END-ISO-10303-21;
