ISO-10303-21;
HEADER;
FILE_DESCRIPTION (( 'STEP AP203' ),
    '1' );
FILE_NAME ('321212.step',
    '2021-11-26T13:11:04',
    ( '' ),
    ( '' ),
    'SwSTEP 2.0',
    'SolidWorks 2019',
    '' );
FILE_SCHEMA (( 'CONFIG_CONTROL_DESIGN' ));
ENDSEC;

DATA;
#1 = EDGE_LOOP ( 'NONE', ( #232 ) ) ;
#2 = PLANE ( 'NONE',  #25 ) ;
#3 = APPROVAL_DATE_TIME ( #213, #51 ) ;
#4 = AXIS2_PLACEMENT_3D ( 'NONE', #199, #246, #287 ) ;
#5 = CARTESIAN_POINT ( 'NONE',  ( 1.019483501215131844E-13, 1.757406262999419099E-14, 29.19916798274875802 ) ) ;
#6 = ADVANCED_FACE ( 'NONE', ( #207, #300 ), #127, .T. ) ;
#7 = LOCAL_TIME ( 14, 11, 4.000000000000000000, #21 ) ;
#8 = CC_DESIGN_PERSON_AND_ORGANIZATION_ASSIGNMENT ( #54, #53, ( #299 ) ) ;
#9 = DIRECTION ( 'NONE',  ( 0.0000000000000000000, -1.000000000000000000, 0.0000000000000000000 ) ) ;
#10 = DIRECTION ( 'NONE',  ( 3.491481338843133355E-15, 6.018686094198702209E-16, 1.000000000000000000 ) ) ;
#11 = ORIENTED_EDGE ( 'NONE', *, *, #87, .F. ) ;
#12 = CARTESIAN_POINT ( 'NONE',  ( 8.728703347107831416E-16, 1.543999999999998707, 0.2499999999999999445 ) ) ;
#13 = CYLINDRICAL_SURFACE ( 'NONE', #272, 1.543999999999995598 ) ;
#14 = EDGE_LOOP ( 'NONE', ( #100 ) ) ;
#15 = VERTEX_POINT ( 'NONE', #35 ) ;
#16 = CARTESIAN_POINT ( 'NONE',  ( 3.842836619358578222E-14, 1.543999999999998707, 11.00632151919753099 ) ) ;
#17 = CC_DESIGN_APPROVAL ( #185, ( #277 ) ) ;
#18 = APPROVAL_STATUS ( 'not_yet_approved' ) ;
#19 = APPLICATION_CONTEXT ( 'configuration controlled 3d designs of mechanical parts and assemblies' ) ;
#20 = FACE_OUTER_BOUND ( 'NONE', #52, .T. ) ;
#21 = COORDINATED_UNIVERSAL_TIME_OFFSET ( 1, 0, .AHEAD. ) ;
#22 = ORIENTED_EDGE ( 'NONE', *, *, #169, .T. ) ;
#23 = EDGE_LOOP ( 'NONE', ( #22 ) ) ;
#24 = EDGE_CURVE ( 'NONE', #41, #41, #284, .T. ) ;
#25 = AXIS2_PLACEMENT_3D ( 'NONE', #40, #273, #136 ) ;
#26 = ORIENTED_EDGE ( 'NONE', *, *, #87, .T. ) ;
#27 = MANIFOLD_SOLID_BREP ( 'Corps-Déplacer/Copier1[1]', #263 ) ;
#28 = MANIFOLD_SOLID_BREP ( 'Corps-Déplacer/Copier1[2]', #192 ) ;
#29 = APPROVAL_PERSON_ORGANIZATION ( #225, #51, #69 ) ;
#30 = APPROVAL_ROLE ( '' ) ;
#31 = DIRECTION ( 'NONE',  ( -1.864254551750298839E-30, 1.000000000000000000, -5.339437249772042613E-16 ) ) ;
#32 = VERTEX_POINT ( 'NONE', #293 ) ;
#33 = ADVANCED_FACE ( 'NONE', ( #186, #280 ), #103, .T. ) ;
#34 = FACE_OUTER_BOUND ( 'NONE', #166, .T. ) ;
#35 = CARTESIAN_POINT ( 'NONE',  ( 8.957261597119120321E-14, -1.499999999999979794, 25.65461684548776233 ) ) ;
#36 = CONICAL_SURFACE ( 'NONE', #4, 1.543999999999999817, 0.5235987755982894898 ) ;
#37 = DIRECTION ( 'NONE',  ( 2.101413018224943268E-30, -1.000000000000000000, 6.018686094198702209E-16 ) ) ;
#38 = AXIS2_PLACEMENT_3D ( 'NONE', #111, #10, #37 ) ;
#39 = VERTEX_POINT ( 'NONE', #223 ) ;
#40 = CARTESIAN_POINT ( 'NONE',  ( 3.842836619358578222E-14, 5.876756310257092471E-15, 11.00632151919753099 ) ) ;
#41 = VERTEX_POINT ( 'NONE', #201 ) ;
#42 = FACE_OUTER_BOUND ( 'NONE', #115, .T. ) ;
#43 = CARTESIAN_POINT ( 'NONE',  ( 3.929919511603369589E-14, -1.399999999999986811, 11.25573683548745052 ) ) ;
#44 = ORIENTED_EDGE ( 'NONE', *, *, #24, .F. ) ;
#45 = AXIS2_PLACEMENT_3D ( 'NONE', #139, #174, #134 ) ;
#46 = DATE_AND_TIME ( #170, #56 ) ;
#47 = DIRECTION ( 'NONE',  ( -3.664998382197393967E-31, -1.000000000000000000, -1.049697256412017316E-16 ) ) ;
#48 = EDGE_CURVE ( 'NONE', #177, #177, #210, .T. ) ;
#49 = SECURITY_CLASSIFICATION_LEVEL ( 'unclassified' ) ;
#50 = EDGE_LOOP ( 'NONE', ( #98 ) ) ;
#51 = APPROVAL ( #18, 'UNSPECIFIED' ) ;
#52 = EDGE_LOOP ( 'NONE', ( #11 ) ) ;
#53 = PERSON_AND_ORGANIZATION_ROLE ( 'classification_officer' ) ;
#54 = PERSON_AND_ORGANIZATION ( #281, #148 ) ;
#55 = CIRCLE ( 'NONE', #120, 1.399662432702592607 ) ;
#56 = LOCAL_TIME ( 14, 11, 4.000000000000000000, #114 ) ;
#57 = PRODUCT_DEFINITION_SHAPE ( 'NONE', 'NONE',  #154 ) ;
#58 = AXIS2_PLACEMENT_3D ( 'NONE', #151, #248, #197 ) ;
#59 = EDGE_LOOP ( 'NONE', ( #267 ) ) ;
#60 = DIRECTION ( 'NONE',  ( 0.0000000000000000000, -1.000000000000000000, 0.0000000000000000000 ) ) ;
#61 = PERSON_AND_ORGANIZATION_ROLE ( 'creator' ) ;
#62 = FACE_OUTER_BOUND ( 'NONE', #14, .T. ) ;
#63 = VERTEX_POINT ( 'NONE', #43 ) ;
#64 = DIRECTION ( 'NONE',  ( 3.491481338843133355E-15, 6.018686094198702209E-16, 1.000000000000000000 ) ) ;
#65 = FACE_OUTER_BOUND ( 'NONE', #253, .T. ) ;
#66 = VERTEX_POINT ( 'NONE', #155 ) ;
#67 = CYLINDRICAL_SURFACE ( 'NONE', #121, 1.499999999999995337 ) ;
#68 = APPLICATION_CONTEXT ( 'configuration controlled 3d designs of mechanical parts and assemblies' ) ;
#69 = APPROVAL_ROLE ( '' ) ;
#70 = CARTESIAN_POINT ( 'NONE',  ( 2.420053478441388388E-30, 3.700928756363289954E-31, 6.931308644036025445E-16 ) ) ;
#71 = AXIS2_PLACEMENT_3D ( 'NONE', #221, #84, #173 ) ;
#72 = APPROVAL_STATUS ( 'not_yet_approved' ) ;
#73 = EDGE_LOOP ( 'NONE', ( #182 ) ) ;
#74 = DATE_TIME_ROLE ( 'classification_date' ) ;
#75 = AXIS2_PLACEMENT_3D ( 'NONE', #102, #191, #60 ) ;
#76 = ADVANCED_FACE ( 'NONE', ( #20 ), #113, .T. ) ;
#77 = AXIS2_PLACEMENT_3D ( 'NONE', #86, #257, #47 ) ;
#78 = CARTESIAN_POINT ( 'NONE',  ( 8.957261597119120321E-14, 1.544070856599329525E-14, 25.65461684548776233 ) ) ;
#79 = PERSON_AND_ORGANIZATION ( #281, #148 ) ;
#80 = PLANE ( 'NONE',  #172 ) ;
#81 = CYLINDRICAL_SURFACE ( 'NONE', #38, 1.399999999999987255 ) ;
#82 = APPLICATION_PROTOCOL_DEFINITION ( 'international standard', 'config_control_design', 1994, #19 ) ;
#83 = FACE_OUTER_BOUND ( 'NONE', #50, .T. ) ;
#84 = DIRECTION ( 'NONE',  ( 3.491481338843133355E-15, 6.018686094198702209E-16, 1.000000000000000000 ) ) ;
#85 = CARTESIAN_POINT ( 'NONE',  ( 3.842836619358578853E-14, 1.543999999999998707, 11.00632151919753277 ) ) ;
#86 = CARTESIAN_POINT ( 'NONE',  ( 2.444036937190193601E-13, -7.347880794884121511E-15, 70.00000000000000000 ) ) ;
#87 = EDGE_CURVE ( 'NONE', #32, #32, #298, .T. ) ;
#88 = ORIENTED_EDGE ( 'NONE', *, *, #95, .F. ) ;
#89 = AXIS2_PLACEMENT_3D ( 'NONE', #78, #251, #156 ) ;
#90 = CIRCLE ( 'NONE', #75, 1.399999999999980815 ) ;
#91 = CALENDAR_DATE ( 2021, 26, 11 ) ;
#92 = DIRECTION ( 'NONE',  ( 0.0000000000000000000, 1.000000000000000000, 0.0000000000000000000 ) ) ;
#93 = ORIENTED_EDGE ( 'NONE', *, *, #145, .T. ) ;
#94 = APPROVAL_DATE_TIME ( #122, #108 ) ;
#95 = EDGE_CURVE ( 'NONE', #107, #107, #55, .T. ) ;
#96 = COORDINATED_UNIVERSAL_TIME_OFFSET ( 1, 0, .AHEAD. ) ;
#97 = CC_DESIGN_PERSON_AND_ORGANIZATION_ASSIGNMENT ( #79, #61, ( #154 ) ) ;
#98 = ORIENTED_EDGE ( 'NONE', *, *, #24, .T. ) ;
#99 = AXIS2_PLACEMENT_3D ( 'NONE', #133, #198, #291 ) ;
#100 = ORIENTED_EDGE ( 'NONE', *, *, #95, .T. ) ;
#101 = EDGE_LOOP ( 'NONE', ( #140 ) ) ;
#102 = CARTESIAN_POINT ( 'NONE',  ( 8.728703347107833388E-14, 1.504671523549675690E-14, 25.00000000000000000 ) ) ;
#103 = CONICAL_SURFACE ( 'NONE', #146, 1.399662432702592607, 0.5235987755982971503 ) ;
#104 = DIRECTION ( 'NONE',  ( -1.871045930428015810E-30, 1.000000000000000000, -5.266526096917934367E-16 ) ) ;
#105 = CARTESIAN_POINT ( 'NONE',  ( 2.420053478441388388E-30, 3.700928756363289954E-31, 6.931308644036025445E-16 ) ) ;
#106 = CONICAL_SURFACE ( 'NONE', #142, 2.124999999999982236, 0.1745329251994328645 ) ;
#107 = VERTEX_POINT ( 'NONE', #152 ) ;
#108 = APPROVAL ( #144, 'UNSPECIFIED' ) ;
#109 = CARTESIAN_POINT ( 'NONE',  ( 0.0000000000000000000, 0.0000000000000000000, 0.0000000000000000000 ) ) ;
#110 = DIRECTION ( 'NONE',  ( 0.0000000000000000000, 1.000000000000000000, 0.0000000000000000000 ) ) ;
#111 = CARTESIAN_POINT ( 'NONE',  ( 0.0000000000000000000, 0.0000000000000000000, 0.0000000000000000000 ) ) ;
#112 = COORDINATED_UNIVERSAL_TIME_OFFSET ( 1, 0, .AHEAD. ) ;
#113 = PLANE ( 'NONE',  #77 ) ;
#114 = COORDINATED_UNIVERSAL_TIME_OFFSET ( 1, 0, .AHEAD. ) ;
#115 = EDGE_LOOP ( 'NONE', ( #297 ) ) ;
#116 = DATE_AND_TIME ( #91, #7 ) ;
#117 = ORIENTED_EDGE ( 'NONE', *, *, #228, .F. ) ;
#118 = CC_DESIGN_SECURITY_CLASSIFICATION ( #299, ( #277 ) ) ;
#119 = DIRECTION ( 'NONE',  ( -3.491481338843133355E-15, 1.049697256412017316E-16, -1.000000000000000000 ) ) ;
#120 = AXIS2_PLACEMENT_3D ( 'NONE', #105, #270, #158 ) ;
#121 = AXIS2_PLACEMENT_3D ( 'NONE', #160, #125, #176 ) ;
#122 = DATE_AND_TIME ( #255, #208 ) ;
#123 = DIRECTION ( 'NONE',  ( 3.664998382197393967E-31, 1.000000000000000000, 1.049697256412017316E-16 ) ) ;
#124 = CALENDAR_DATE ( 2021, 26, 11 ) ;
#125 = DIRECTION ( 'NONE',  ( -3.491481338843133355E-15, 1.049697256412017316E-16, -1.000000000000000000 ) ) ;
#126 = ADVANCED_FACE ( 'NONE', ( #275, #285 ), #36, .T. ) ;
#127 = CONICAL_SURFACE ( 'NONE', #181, 1.499999999999997558, 0.7853981633974573828 ) ;
#128 =( LENGTH_UNIT ( ) NAMED_UNIT ( * ) SI_UNIT ( .MILLI., .METRE. ) );
#129 = FACE_OUTER_BOUND ( 'NONE', #1, .T. ) ;
#130 = CIRCLE ( 'NONE', #164, 1.543999999999998485 ) ;
#131 = CC_DESIGN_PERSON_AND_ORGANIZATION_ASSIGNMENT ( #279, #235, ( #277 ) ) ;
#132 = EDGE_LOOP ( 'NONE', ( #278 ) ) ;
#133 = CARTESIAN_POINT ( 'NONE',  ( 0.0000000000000000000, 0.0000000000000000000, 0.0000000000000000000 ) ) ;
#134 = DIRECTION ( 'NONE',  ( 0.0000000000000000000, 1.000000000000000000, 0.0000000000000000000 ) ) ;
#135 = PERSON_AND_ORGANIZATION ( #281, #148 ) ;
#136 = DIRECTION ( 'NONE',  ( 1.864254551750298839E-30, -1.000000000000000000, 5.339437249772042613E-16 ) ) ;
#137 = APPLICATION_PROTOCOL_DEFINITION ( 'international standard', 'config_control_design', 1994, #68 ) ;
#138 = CARTESIAN_POINT ( 'NONE',  ( 3.842836619358578853E-14, -1.155330550189019632E-15, 11.00632151919753277 ) ) ;
#139 = CARTESIAN_POINT ( 'NONE',  ( 2.444036937190193601E-13, -7.347880794884121511E-15, 70.00000000000000000 ) ) ;
#140 = ORIENTED_EDGE ( 'NONE', *, *, #271, .F. ) ;
#141 = ORIENTED_EDGE ( 'NONE', *, *, #228, .T. ) ;
#142 = AXIS2_PLACEMENT_3D ( 'NONE', #5, #216, #9 ) ;
#143 = PRODUCT_RELATED_PRODUCT_CATEGORY ( 'detail', '', ( #243 ) ) ;
#144 = APPROVAL_STATUS ( 'not_yet_approved' ) ;
#145 = EDGE_CURVE ( 'NONE', #39, #39, #215, .T. ) ;
#146 = AXIS2_PLACEMENT_3D ( 'NONE', #70, #233, #202 ) ;
#147 = PERSON_AND_ORGANIZATION_ROLE ( 'design_supplier' ) ;
#148 = ORGANIZATION ( 'UNSPECIFIED', 'UNSPECIFIED', '' ) ;
#149 = EDGE_LOOP ( 'NONE', ( #150 ) ) ;
#150 = ORIENTED_EDGE ( 'NONE', *, *, #301, .T. ) ;
#151 = CARTESIAN_POINT ( 'NONE',  ( 8.728703347107833388E-14, 1.517883041479706208E-14, 25.00000000000000000 ) ) ;
#152 = CARTESIAN_POINT ( 'NONE',  ( -1.892735826383161356E-31, 1.399662432702592607, -5.421010862427522170E-17 ) ) ;
#153 = CARTESIAN_POINT ( 'NONE',  ( -1.399300321859010308E-30, 1.399662432702592607, -4.007755408260764939E-16 ) ) ;
#154 = PRODUCT_DEFINITION ( 'UNKNOWN', '', #277, #242 ) ;
#155 = CARTESIAN_POINT ( 'NONE',  ( 2.433562493173664138E-13, 1.499999999999990230, 69.70000000000001705 ) ) ;
#156 = DIRECTION ( 'NONE',  ( 0.0000000000000000000, -1.000000000000000000, 0.0000000000000000000 ) ) ;
#157 = APPROVAL_PERSON_ORGANIZATION ( #259, #185, #262 ) ;
#158 = DIRECTION ( 'NONE',  ( -1.864254551750298839E-30, 1.000000000000000000, -5.339437249772042613E-16 ) ) ;
#159 = MECHANICAL_CONTEXT ( 'NONE', #19, 'mechanical' ) ;
#160 = CARTESIAN_POINT ( 'NONE',  ( 0.0000000000000000000, 0.0000000000000000000, 0.0000000000000000000 ) ) ;
#161 = DIRECTION ( 'NONE',  ( -3.491481338843133355E-15, 1.049697256412017316E-16, -1.000000000000000000 ) ) ;
#162 = AXIS2_PLACEMENT_3D ( 'NONE', #138, #209, #276 ) ;
#163 = EDGE_LOOP ( 'NONE', ( #117 ) ) ;
#164 = AXIS2_PLACEMENT_3D ( 'NONE', #220, #245, #104 ) ;
#165 = ORIENTED_EDGE ( 'NONE', *, *, #303, .F. ) ;
#166 = EDGE_LOOP ( 'NONE', ( #261 ) ) ;
#167 = CC_DESIGN_PERSON_AND_ORGANIZATION_ASSIGNMENT ( #231, #147, ( #277 ) ) ;
#168 = COORDINATED_UNIVERSAL_TIME_OFFSET ( 1, 0, .AHEAD. ) ;
#169 = EDGE_CURVE ( 'NONE', #15, #15, #236, .T. ) ;
#170 = CALENDAR_DATE ( 2021, 26, 11 ) ;
#171 = AXIS2_PLACEMENT_3D ( 'NONE', #266, #64, #292 ) ;
#172 = AXIS2_PLACEMENT_3D ( 'NONE', #153, #195, #244 ) ;
#173 = DIRECTION ( 'NONE',  ( 0.0000000000000000000, -1.000000000000000000, 0.0000000000000000000 ) ) ;
#174 = DIRECTION ( 'NONE',  ( -3.491481338843133355E-15, 1.049697256412017316E-16, -1.000000000000000000 ) ) ;
#175 = FACE_OUTER_BOUND ( 'NONE', #73, .T. ) ;
#176 = DIRECTION ( 'NONE',  ( 3.664998382197393967E-31, 1.000000000000000000, 1.049697256412017316E-16 ) ) ;
#177 = VERTEX_POINT ( 'NONE', #85 ) ;
#178 = DIRECTION ( 'NONE',  ( -3.491481338843133355E-15, 1.049697256412017316E-16, -1.000000000000000000 ) ) ;
#179 = VERTEX_POINT ( 'NONE', #268 ) ;
#180 = EDGE_LOOP ( 'NONE', ( #141 ) ) ;
#181 = AXIS2_PLACEMENT_3D ( 'NONE', #295, #119, #92 ) ;
#182 = ORIENTED_EDGE ( 'NONE', *, *, #301, .F. ) ;
#183 = AXIS2_PLACEMENT_3D ( 'NONE', #250, #161, #110 ) ;
#184 = DATE_TIME_ROLE ( 'creation_date' ) ;
#185 = APPROVAL ( #72, 'UNSPECIFIED' ) ;
#186 = FACE_OUTER_BOUND ( 'NONE', #149, .T. ) ;
#187 = DIRECTION ( 'NONE',  ( -3.491481338843133355E-15, -5.339437249772042613E-16, -1.000000000000000000 ) ) ;
#188 = LOCAL_TIME ( 14, 11, 4.000000000000000000, #112 ) ;
#189 = CC_DESIGN_DATE_AND_TIME_ASSIGNMENT ( #46, #74, ( #299 ) ) ;
#190 = EDGE_LOOP ( 'NONE', ( #93 ) ) ;
#191 = DIRECTION ( 'NONE',  ( 3.491481338843133355E-15, 6.018686094198702209E-16, 1.000000000000000000 ) ) ;
#192 = CLOSED_SHELL ( 'NONE', ( #237, #264, #33, #193 ) ) ;
#193 = ADVANCED_FACE ( 'NONE', ( #62 ), #80, .T. ) ;
#194 = TOROIDAL_SURFACE ( 'NONE', #58, 2.399999999999977263, 0.9999999999999965583 ) ;
#195 = DIRECTION ( 'NONE',  ( -3.491481338843133355E-15, -5.339437249772042613E-16, -1.000000000000000000 ) ) ;
#196 =( NAMED_UNIT ( * ) PLANE_ANGLE_UNIT ( ) SI_UNIT ( $, .RADIAN. ) );
#197 = DIRECTION ( 'NONE',  ( 2.163896063879671835E-30, -1.000000000000000000, 6.018686094198701223E-16 ) ) ;
#198 = DIRECTION ( 'NONE',  ( 0.0000000000000000000, 0.0000000000000000000, 1.000000000000000000 ) ) ;
#199 = CARTESIAN_POINT ( 'NONE',  ( 3.842836619358578853E-14, -1.155330550189019632E-15, 11.00632151919753277 ) ) ;
#200 = FACE_OUTER_BOUND ( 'NONE', #59, .T. ) ;
#201 = CARTESIAN_POINT ( 'NONE',  ( 3.842836619358578853E-14, 1.543999999999998707, 11.00632151919753277 ) ) ;
#202 = DIRECTION ( 'NONE',  ( 1.864254551750298839E-30, -1.000000000000000000, 5.339437249772042613E-16 ) ) ;
#203 = ADVANCED_FACE ( 'NONE', ( #269, #294 ), #81, .T. ) ;
#204 = PERSON_AND_ORGANIZATION ( #281, #148 ) ;
#205 = EDGE_LOOP ( 'NONE', ( #44 ) ) ;
#206 = APPROVAL_DATE_TIME ( #116, #185 ) ;
#207 = FACE_BOUND ( 'NONE', #260, .T. ) ;
#208 = LOCAL_TIME ( 14, 11, 4.000000000000000000, #96 ) ;
#209 = DIRECTION ( 'NONE',  ( -3.491481338843133355E-15, 1.049697256412017316E-16, -1.000000000000000000 ) ) ;
#210 = CIRCLE ( 'NONE', #254, 1.543999999999992934 ) ;
#211 = ADVANCED_FACE ( 'NONE', ( #129, #218 ), #67, .T. ) ;
#212 = DIRECTION ( 'NONE',  ( -3.491481338843133355E-15, -5.339437249772042613E-16, -1.000000000000000000 ) ) ;
#213 = DATE_AND_TIME ( #124, #188 ) ;
#214 = FACE_BOUND ( 'NONE', #190, .T. ) ;
#215 = CIRCLE ( 'NONE', #171, 1.415192246987776015 ) ;
#216 = DIRECTION ( 'NONE',  ( 3.491481338843133355E-15, 6.018686094198702209E-16, 1.000000000000000000 ) ) ;
#217 = APPROVAL_PERSON_ORGANIZATION ( #204, #108, #30 ) ;
#218 = FACE_OUTER_BOUND ( 'NONE', #23, .T. ) ;
#219 = ORIENTED_EDGE ( 'NONE', *, *, #145, .F. ) ;
#220 = CARTESIAN_POINT ( 'NONE',  ( 8.728703347107860998E-16, 1.334859312443014598E-16, 0.2500000000000007772 ) ) ;
#221 = CARTESIAN_POINT ( 'NONE',  ( 3.929919511603369589E-14, 6.774474677170842422E-15, 11.25573683548745052 ) ) ;
#222 = EDGE_LOOP ( 'NONE', ( #165 ) ) ;
#223 = CARTESIAN_POINT ( 'NONE',  ( 8.789332284292655368E-14, -1.415192246987760694, 25.17364817766693363 ) ) ;
#224 = PLANE ( 'NONE',  #238 ) ;
#225 = PERSON_AND_ORGANIZATION ( #281, #148 ) ;
#226 = CC_DESIGN_APPROVAL ( #108, ( #299 ) ) ;
#227 = DIRECTION ( 'NONE',  ( 0.0000000000000000000, 1.000000000000000000, 0.0000000000000000000 ) ) ;
#228 = EDGE_CURVE ( 'NONE', #63, #63, #256, .T. ) ;
#229 = DATE_AND_TIME ( #239, #247 ) ;
#230 = EDGE_LOOP ( 'NONE', ( #88 ) ) ;
#231 = PERSON_AND_ORGANIZATION ( #281, #148 ) ;
#232 = ORIENTED_EDGE ( 'NONE', *, *, #303, .T. ) ;
#233 = DIRECTION ( 'NONE',  ( 3.491481338843133355E-15, 5.339437249772042613E-16, 1.000000000000000000 ) ) ;
#234 = CIRCLE ( 'NONE', #183, 1.499999999999997558 ) ;
#235 = PERSON_AND_ORGANIZATION_ROLE ( 'creator' ) ;
#236 = CIRCLE ( 'NONE', #89, 1.499999999999995337 ) ;
#237 = ADVANCED_FACE ( 'NONE', ( #200 ), #2, .T. ) ;
#238 = AXIS2_PLACEMENT_3D ( 'NONE', #16, #178, #123 ) ;
#239 = CALENDAR_DATE ( 2021, 26, 11 ) ;
#240 = ADVANCED_FACE ( 'NONE', ( #42, #65 ), #194, .F. ) ;
#241 = UNCERTAINTY_MEASURE_WITH_UNIT (LENGTH_MEASURE( 1.000000000000000082E-05 ), #128, 'distance_accuracy_value', 'NONE');
#242 = DESIGN_CONTEXT ( 'detailed design', #68, 'design' ) ;
#243 = PRODUCT ( '321212', '321212', '', ( #159 ) ) ;
#244 = DIRECTION ( 'NONE',  ( -1.864254551750298839E-30, 1.000000000000000000, -5.339437249772042613E-16 ) ) ;
#245 = DIRECTION ( 'NONE',  ( -3.491481338843133355E-15, -5.339437249772042613E-16, -1.000000000000000000 ) ) ;
#246 = DIRECTION ( 'NONE',  ( -3.491481338843133355E-15, 1.049697256412017316E-16, -1.000000000000000000 ) ) ;
#247 = LOCAL_TIME ( 14, 11, 4.000000000000000000, #168 ) ;
#248 = DIRECTION ( 'NONE',  ( 3.491481338843133355E-15, 6.018686094198702209E-16, 1.000000000000000000 ) ) ;
#249 = CC_DESIGN_PERSON_AND_ORGANIZATION_ASSIGNMENT ( #135, #252, ( #243 ) ) ;
#250 = CARTESIAN_POINT ( 'NONE',  ( 2.433562493173664138E-13, -7.316389877191761450E-15, 69.70000000000001705 ) ) ;
#251 = DIRECTION ( 'NONE',  ( 3.491481338843133355E-15, 6.018686094198702209E-16, 1.000000000000000000 ) ) ;
#252 = PERSON_AND_ORGANIZATION_ROLE ( 'design_owner' ) ;
#253 = EDGE_LOOP ( 'NONE', ( #219 ) ) ;
#254 = AXIS2_PLACEMENT_3D ( 'NONE', #302, #187, #227 ) ;
#255 = CALENDAR_DATE ( 2021, 26, 11 ) ;
#256 = CIRCLE ( 'NONE', #71, 1.399999999999993472 ) ;
#257 = DIRECTION ( 'NONE',  ( 3.491481338843133355E-15, -1.049697256412017316E-16, 1.000000000000000000 ) ) ;
#258 = ADVANCED_BREP_SHAPE_REPRESENTATION ( '321212', ( #27, #28, #99 ), #283 ) ;
#259 = PERSON_AND_ORGANIZATION ( #281, #148 ) ;
#260 = EDGE_LOOP ( 'NONE', ( #26 ) ) ;
#261 = ORIENTED_EDGE ( 'NONE', *, *, #169, .F. ) ;
#262 = APPROVAL_ROLE ( '' ) ;
#263 = CLOSED_SHELL ( 'NONE', ( #211, #76, #6, #282, #240, #203, #265, #126 ) ) ;
#264 = ADVANCED_FACE ( 'NONE', ( #290, #175 ), #13, .T. ) ;
#265 = ADVANCED_FACE ( 'NONE', ( #83 ), #224, .T. ) ;
#266 = CARTESIAN_POINT ( 'NONE',  ( 8.789332284292655368E-14, 1.515122862271744924E-14, 25.17364817766693363 ) ) ;
#267 = ORIENTED_EDGE ( 'NONE', *, *, #48, .F. ) ;
#268 = CARTESIAN_POINT ( 'NONE',  ( 8.728703347107833388E-14, -1.399999999999965938, 25.00000000000000000 ) ) ;
#269 = FACE_OUTER_BOUND ( 'NONE', #180, .T. ) ;
#270 = DIRECTION ( 'NONE',  ( -3.491481338843133355E-15, -5.339437249772042613E-16, -1.000000000000000000 ) ) ;
#271 = EDGE_CURVE ( 'NONE', #179, #179, #90, .T. ) ;
#272 = AXIS2_PLACEMENT_3D ( 'NONE', #109, #212, #31 ) ;
#273 = DIRECTION ( 'NONE',  ( 3.491481338843133355E-15, 5.339437249772042613E-16, 1.000000000000000000 ) ) ;
#274 = VERTEX_POINT ( 'NONE', #12 ) ;
#275 = FACE_OUTER_BOUND ( 'NONE', #205, .T. ) ;
#276 = DIRECTION ( 'NONE',  ( 0.0000000000000000000, 1.000000000000000000, 0.0000000000000000000 ) ) ;
#277 = PRODUCT_DEFINITION_FORMATION_WITH_SPECIFIED_SOURCE ( 'ANY', '', #243, .NOT_KNOWN. ) ;
#278 = ORIENTED_EDGE ( 'NONE', *, *, #48, .T. ) ;
#279 = PERSON_AND_ORGANIZATION ( #281, #148 ) ;
#280 = FACE_BOUND ( 'NONE', #230, .T. ) ;
#281 = PERSON ( 'UNSPECIFIED', 'UNSPECIFIED', 'UNSPECIFIED', ('UNSPECIFIED'), ('UNSPECIFIED'), ('UNSPECIFIED') ) ;
#282 = ADVANCED_FACE ( 'NONE', ( #34, #214 ), #106, .T. ) ;
#283 =( GEOMETRIC_REPRESENTATION_CONTEXT ( 3 ) GLOBAL_UNCERTAINTY_ASSIGNED_CONTEXT ( ( #241 ) ) GLOBAL_UNIT_ASSIGNED_CONTEXT ( ( #128, #196, #288 ) ) REPRESENTATION_CONTEXT ( 'NONE', 'WORKASPACE' ) );
#284 = CIRCLE ( 'NONE', #162, 1.543999999999999817 ) ;
#285 = FACE_BOUND ( 'NONE', #163, .T. ) ;
#286 = CC_DESIGN_APPROVAL ( #51, ( #154 ) ) ;
#287 = DIRECTION ( 'NONE',  ( 0.0000000000000000000, 1.000000000000000000, 0.0000000000000000000 ) ) ;
#288 =( NAMED_UNIT ( * ) SI_UNIT ( $, .STERADIAN. ) SOLID_ANGLE_UNIT ( ) );
#289 = CC_DESIGN_DATE_AND_TIME_ASSIGNMENT ( #229, #184, ( #154 ) ) ;
#290 = FACE_OUTER_BOUND ( 'NONE', #132, .T. ) ;
#291 = DIRECTION ( 'NONE',  ( 1.000000000000000000, 0.0000000000000000000, 0.0000000000000000000 ) ) ;
#292 = DIRECTION ( 'NONE',  ( 0.0000000000000000000, -1.000000000000000000, 0.0000000000000000000 ) ) ;
#293 = CARTESIAN_POINT ( 'NONE',  ( 2.444036937190193601E-13, 1.199999999999990186, 70.00000000000000000 ) ) ;
#294 = FACE_OUTER_BOUND ( 'NONE', #101, .T. ) ;
#295 = CARTESIAN_POINT ( 'NONE',  ( 2.433562493173664138E-13, -7.316389877191761450E-15, 69.70000000000001705 ) ) ;
#296 = SHAPE_DEFINITION_REPRESENTATION ( #57, #258 ) ;
#297 = ORIENTED_EDGE ( 'NONE', *, *, #271, .T. ) ;
#298 = CIRCLE ( 'NONE', #45, 1.199999999999997513 ) ;
#299 = SECURITY_CLASSIFICATION ( '', '', #49 ) ;
#300 = FACE_OUTER_BOUND ( 'NONE', #222, .T. ) ;
#301 = EDGE_CURVE ( 'NONE', #274, #274, #130, .T. ) ;
#302 = CARTESIAN_POINT ( 'NONE',  ( 3.842836619358578853E-14, 5.876756310257092471E-15, 11.00632151919753277 ) ) ;
#303 = EDGE_CURVE ( 'NONE', #66, #66, #234, .T. ) ;
ENDSEC;
END-ISO-10303-21;
