ISO-10303-21;
HEADER;
FILE_DESCRIPTION (( 'STEP AP203' ),
    '1' );
FILE_NAME ('321211.step',
    '2021-11-26T13:11:04',
    ( '' ),
    ( '' ),
    'SwSTEP 2.0',
    'SolidWorks 2019',
    '' );
FILE_SCHEMA (( 'CONFIG_CONTROL_DESIGN' ));
ENDSEC;

DATA;
#1 = CARTESIAN_POINT ( 'NONE',  ( 2.444036937190193601E-13, -7.347880794884121511E-15, 70.00000000000000000 ) ) ;
#2 = EDGE_CURVE ( 'NONE', #65, #65, #287, .T. ) ;
#3 = AXIS2_PLACEMENT_3D ( 'NONE', #20, #95, #278 ) ;
#4 = MANIFOLD_SOLID_BREP ( 'Corps-Déplacer/Copier1[2]', #24 ) ;
#5 = ORIENTED_EDGE ( 'NONE', *, *, #265, .F. ) ;
#6 = AXIS2_PLACEMENT_3D ( 'NONE', #1, #112, #148 ) ;
#7 = SECURITY_CLASSIFICATION ( '', '', #297 ) ;
#8 = AXIS2_PLACEMENT_3D ( 'NONE', #42, #212, #210 ) ;
#9 = EDGE_LOOP ( 'NONE', ( #58 ) ) ;
#10 = ORIENTED_EDGE ( 'NONE', *, *, #118, .F. ) ;
#11 = CC_DESIGN_DATE_AND_TIME_ASSIGNMENT ( #88, #92, ( #219 ) ) ;
#12 = APPLICATION_PROTOCOL_DEFINITION ( 'international standard', 'config_control_design', 1994, #36 ) ;
#13 = MANIFOLD_SOLID_BREP ( 'Corps-Déplacer/Copier1[1]', #215 ) ;
#14 = DIRECTION ( 'NONE',  ( 0.0000000000000000000, -1.000000000000000000, 0.0000000000000000000 ) ) ;
#15 = CARTESIAN_POINT ( 'NONE',  ( 3.845860330894856989E-14, -1.156239614679355553E-15, 11.01498177323537853 ) ) ;
#16 = PERSON_AND_ORGANIZATION ( #85, #271 ) ;
#17 = FACE_OUTER_BOUND ( 'NONE', #31, .T. ) ;
#18 = DIRECTION ( 'NONE',  ( -3.491481338843133355E-15, 1.049697256412017316E-16, -1.000000000000000000 ) ) ;
#19 = AXIS2_PLACEMENT_3D ( 'NONE', #70, #115, #47 ) ;
#20 = CARTESIAN_POINT ( 'NONE',  ( 2.407750310502070777E-30, 3.677890878256266322E-31, 6.896070970552155775E-16 ) ) ;
#21 = DIRECTION ( 'NONE',  ( 0.0000000000000000000, -1.000000000000000000, 0.0000000000000000000 ) ) ;
#22 = DIRECTION ( 'NONE',  ( 0.0000000000000000000, -1.000000000000000000, 0.0000000000000000000 ) ) ;
#23 = PRODUCT_DEFINITION_FORMATION_WITH_SPECIFIED_SOURCE ( 'ANY', '', #121, .NOT_KNOWN. ) ;
#24 = CLOSED_SHELL ( 'NONE', ( #218, #48, #196, #173 ) ) ;
#25 = FACE_OUTER_BOUND ( 'NONE', #54, .T. ) ;
#26 = EDGE_CURVE ( 'NONE', #227, #227, #69, .T. ) ;
#27 = PRODUCT_RELATED_PRODUCT_CATEGORY ( 'detail', '', ( #121 ) ) ;
#28 = ORIENTED_EDGE ( 'NONE', *, *, #262, .T. ) ;
#29 = EDGE_LOOP ( 'NONE', ( #28 ) ) ;
#30 = VERTEX_POINT ( 'NONE', #164 ) ;
#31 = EDGE_LOOP ( 'NONE', ( #222 ) ) ;
#32 = PERSON_AND_ORGANIZATION ( #85, #271 ) ;
#33 = APPROVAL_PERSON_ORGANIZATION ( #292, #216, #274 ) ;
#34 = ORIENTED_EDGE ( 'NONE', *, *, #2, .T. ) ;
#35 = AXIS2_PLACEMENT_3D ( 'NONE', #137, #225, #160 ) ;
#36 = APPLICATION_CONTEXT ( 'configuration controlled 3d designs of mechanical parts and assemblies' ) ;
#37 = DIRECTION ( 'NONE',  ( -3.491481338843133355E-15, 1.049697256412017316E-16, -1.000000000000000000 ) ) ;
#38 = APPROVAL_STATUS ( 'not_yet_approved' ) ;
#39 = FACE_OUTER_BOUND ( 'NONE', #127, .T. ) ;
#40 = PERSON_AND_ORGANIZATION ( #85, #271 ) ;
#41 = DIRECTION ( 'NONE',  ( 1.862116475101322479E-30, -1.000000000000000000, 5.333313554865842796E-16 ) ) ;
#42 = CARTESIAN_POINT ( 'NONE',  ( 8.957261597119120321E-14, 1.544070856599329525E-14, 25.65461684548776233 ) ) ;
#43 = DIRECTION ( 'NONE',  ( 3.491481338843133355E-15, 6.018686094198702209E-16, 1.000000000000000000 ) ) ;
#44 = DIRECTION ( 'NONE',  ( -3.491481338843133355E-15, 1.049697256412017316E-16, -1.000000000000000000 ) ) ;
#45 = DATE_AND_TIME ( #234, #159 ) ;
#46 = FACE_OUTER_BOUND ( 'NONE', #264, .T. ) ;
#47 = DIRECTION ( 'NONE',  ( 0.0000000000000000000, 1.000000000000000000, 0.0000000000000000000 ) ) ;
#48 = ADVANCED_FACE ( 'NONE', ( #296, #39 ), #59, .T. ) ;
#49 = AXIS2_PLACEMENT_3D ( 'NONE', #272, #302, #96 ) ;
#50 = EDGE_CURVE ( 'NONE', #211, #211, #239, .T. ) ;
#51 = AXIS2_PLACEMENT_3D ( 'NONE', #141, #228, #231 ) ;
#52 = EDGE_LOOP ( 'NONE', ( #256 ) ) ;
#53 = EDGE_CURVE ( 'NONE', #171, #171, #177, .T. ) ;
#54 = EDGE_LOOP ( 'NONE', ( #220 ) ) ;
#55 = EDGE_LOOP ( 'NONE', ( #180 ) ) ;
#56 = AXIS2_PLACEMENT_3D ( 'NONE', #93, #255, #187 ) ;
#57 = PERSON_AND_ORGANIZATION ( #85, #271 ) ;
#58 = ORIENTED_EDGE ( 'NONE', *, *, #50, .F. ) ;
#59 = CYLINDRICAL_SURFACE ( 'NONE', #198, 1.538999999999995705 ) ;
#60 = CC_DESIGN_APPROVAL ( #80, ( #7 ) ) ;
#61 = AXIS2_PLACEMENT_3D ( 'NONE', #15, #248, #68 ) ;
#62 = CARTESIAN_POINT ( 'NONE',  ( -1.892735826383161356E-31, 1.394662432702592492, -5.421010862427522170E-17 ) ) ;
#63 = DIRECTION ( 'NONE',  ( 3.491481338843133355E-15, 6.018686094198702209E-16, 1.000000000000000000 ) ) ;
#64 = VERTEX_POINT ( 'NONE', #62 ) ;
#65 = VERTEX_POINT ( 'NONE', #99 ) ;
#66 = CARTESIAN_POINT ( 'NONE',  ( 0.0000000000000000000, 0.0000000000000000000, 0.0000000000000000000 ) ) ;
#67 = CARTESIAN_POINT ( 'NONE',  ( 3.845860330894856989E-14, 5.874635159779643171E-15, 11.01498177323537853 ) ) ;
#68 = DIRECTION ( 'NONE',  ( 0.0000000000000000000, 1.000000000000000000, 0.0000000000000000000 ) ) ;
#69 = CIRCLE ( 'NONE', #238, 1.399999999999980815 ) ;
#70 = CARTESIAN_POINT ( 'NONE',  ( 3.845860330894856989E-14, 5.874635159779643960E-15, 11.01498177323537853 ) ) ;
#71 = COORDINATED_UNIVERSAL_TIME_OFFSET ( 1, 0, .AHEAD. ) ;
#72 = CARTESIAN_POINT ( 'NONE',  ( -1.393148737889351502E-30, 1.394662432702592492, -3.990136571518830105E-16 ) ) ;
#73 = CC_DESIGN_PERSON_AND_ORGANIZATION_ASSIGNMENT ( #243, #203, ( #121 ) ) ;
#74 = CIRCLE ( 'NONE', #144, 1.394662432702592492 ) ;
#75 = EDGE_CURVE ( 'NONE', #122, #122, #120, .T. ) ;
#76 = CC_DESIGN_APPROVAL ( #79, ( #219 ) ) ;
#77 = AXIS2_PLACEMENT_3D ( 'NONE', #143, #18, #185 ) ;
#78 = ORIENTED_EDGE ( 'NONE', *, *, #265, .T. ) ;
#79 = APPROVAL ( #38, 'UNSPECIFIED' ) ;
#80 = APPROVAL ( #172, 'UNSPECIFIED' ) ;
#81 = EDGE_LOOP ( 'NONE', ( #200 ) ) ;
#82 = VERTEX_POINT ( 'NONE', #244 ) ;
#83 = ORIENTED_EDGE ( 'NONE', *, *, #103, .F. ) ;
#84 = FACE_OUTER_BOUND ( 'NONE', #123, .T. ) ;
#85 = PERSON ( 'UNSPECIFIED', 'UNSPECIFIED', 'UNSPECIFIED', ('UNSPECIFIED'), ('UNSPECIFIED'), ('UNSPECIFIED') ) ;
#86 = PERSON_AND_ORGANIZATION_ROLE ( 'creator' ) ;
#87 = FACE_OUTER_BOUND ( 'NONE', #153, .T. ) ;
#88 = DATE_AND_TIME ( #294, #175 ) ;
#89 = DIRECTION ( 'NONE',  ( -3.491481338843133355E-15, -5.333313554865842796E-16, -1.000000000000000000 ) ) ;
#90 = CARTESIAN_POINT ( 'NONE',  ( 8.789332284292655368E-14, 1.515122862271744924E-14, 25.17364817766693363 ) ) ;
#91 = CONICAL_SURFACE ( 'NONE', #298, 1.499999999999997558, 0.7853981633974573828 ) ;
#92 = DATE_TIME_ROLE ( 'creation_date' ) ;
#93 = CARTESIAN_POINT ( 'NONE',  ( 3.845860330894856989E-14, 1.538999999999998813, 11.01498177323537853 ) ) ;
#94 = CYLINDRICAL_SURFACE ( 'NONE', #152, 1.499999999999995337 ) ;
#95 = DIRECTION ( 'NONE',  ( 3.491481338843133355E-15, 5.333313554865842796E-16, 1.000000000000000000 ) ) ;
#96 = DIRECTION ( 'NONE',  ( 0.0000000000000000000, 1.000000000000000000, 0.0000000000000000000 ) ) ;
#97 = AXIS2_PLACEMENT_3D ( 'NONE', #66, #63, #168 ) ;
#98 = DATE_TIME_ROLE ( 'classification_date' ) ;
#99 = CARTESIAN_POINT ( 'NONE',  ( 8.728703347107831416E-16, 1.538999999999998813, 0.2499999999999999445 ) ) ;
#100 = CC_DESIGN_PERSON_AND_ORGANIZATION_ASSIGNMENT ( #40, #86, ( #23 ) ) ;
#101 = EDGE_LOOP ( 'NONE', ( #266 ) ) ;
#102 = APPLICATION_PROTOCOL_DEFINITION ( 'international standard', 'config_control_design', 1994, #208 ) ;
#103 = EDGE_CURVE ( 'NONE', #252, #252, #161, .T. ) ;
#104 = ORIENTED_EDGE ( 'NONE', *, *, #75, .T. ) ;
#105 = CALENDAR_DATE ( 2021, 26, 11 ) ;
#106 = DIRECTION ( 'NONE',  ( 3.491481338843133355E-15, 6.018686094198702209E-16, 1.000000000000000000 ) ) ;
#107 = CARTESIAN_POINT ( 'NONE',  ( 3.929919511603369589E-14, -1.399999999999986811, 11.25573683548745052 ) ) ;
#108 = CARTESIAN_POINT ( 'NONE',  ( 3.929919511603369589E-14, 6.774474677170842422E-15, 11.25573683548745052 ) ) ;
#109 = DIRECTION ( 'NONE',  ( -1.862116475101322479E-30, 1.000000000000000000, -5.333313554865842796E-16 ) ) ;
#110 = ADVANCED_FACE ( 'NONE', ( #300, #84 ), #94, .T. ) ;
#111 = PERSON_AND_ORGANIZATION_ROLE ( 'classification_officer' ) ;
#112 = DIRECTION ( 'NONE',  ( 3.491481338843133355E-15, -1.049697256412017316E-16, 1.000000000000000000 ) ) ;
#113 = DIRECTION ( 'NONE',  ( 0.0000000000000000000, -1.000000000000000000, 0.0000000000000000000 ) ) ;
#114 = AXIS2_PLACEMENT_3D ( 'NONE', #142, #280, #14 ) ;
#115 = DIRECTION ( 'NONE',  ( -3.491481338843133355E-15, -5.333313554865842796E-16, -1.000000000000000000 ) ) ;
#116 = FACE_BOUND ( 'NONE', #158, .T. ) ;
#117 = PLANE ( 'NONE',  #6 ) ;
#118 = EDGE_CURVE ( 'NONE', #82, #82, #194, .T. ) ;
#119 = APPROVAL_PERSON_ORGANIZATION ( #32, #79, #133 ) ;
#120 = CIRCLE ( 'NONE', #8, 1.499999999999995337 ) ;
#121 = PRODUCT ( '321211', '321211', '', ( #249 ) ) ;
#122 = VERTEX_POINT ( 'NONE', #165 ) ;
#123 = EDGE_LOOP ( 'NONE', ( #104 ) ) ;
#124 = DESIGN_CONTEXT ( 'detailed design', #36, 'design' ) ;
#125 = ADVANCED_FACE ( 'NONE', ( #270, #276 ), #279, .T. ) ;
#126 = EDGE_LOOP ( 'NONE', ( #34 ) ) ;
#127 = EDGE_LOOP ( 'NONE', ( #179 ) ) ;
#128 = AXIS2_PLACEMENT_3D ( 'NONE', #67, #136, #41 ) ;
#129 = ADVANCED_FACE ( 'NONE', ( #87, #116 ), #131, .T. ) ;
#130 = AXIS2_PLACEMENT_3D ( 'NONE', #204, #277, #247 ) ;
#131 = CONICAL_SURFACE ( 'NONE', #49, 1.538999999999999702, 0.5235987755982932645 ) ;
#132 = EDGE_LOOP ( 'NONE', ( #178 ) ) ;
#133 = APPROVAL_ROLE ( '' ) ;
#134 = DIRECTION ( 'NONE',  ( 0.0000000000000000000, 1.000000000000000000, 0.0000000000000000000 ) ) ;
#135 = COORDINATED_UNIVERSAL_TIME_OFFSET ( 1, 0, .AHEAD. ) ;
#136 = DIRECTION ( 'NONE',  ( 3.491481338843133355E-15, 5.333313554865842796E-16, 1.000000000000000000 ) ) ;
#137 = CARTESIAN_POINT ( 'NONE',  ( 8.728703347107860998E-16, 1.333328388716464890E-16, 0.2500000000000007772 ) ) ;
#138 = CC_DESIGN_PERSON_AND_ORGANIZATION_ASSIGNMENT ( #16, #111, ( #7 ) ) ;
#139 = PERSON_AND_ORGANIZATION ( #85, #271 ) ;
#140 = FACE_OUTER_BOUND ( 'NONE', #132, .T. ) ;
#141 = CARTESIAN_POINT ( 'NONE',  ( 2.433562493173664138E-13, -7.316389877191761450E-15, 69.70000000000001705 ) ) ;
#142 = CARTESIAN_POINT ( 'NONE',  ( 1.019483501215131844E-13, 1.757406262999419099E-14, 29.19916798274875802 ) ) ;
#143 = CARTESIAN_POINT ( 'NONE',  ( 2.444036937190193601E-13, -7.347880794884121511E-15, 70.00000000000000000 ) ) ;
#144 = AXIS2_PLACEMENT_3D ( 'NONE', #232, #89, #213 ) ;
#145 = PERSON_AND_ORGANIZATION ( #85, #271 ) ;
#146 = FACE_OUTER_BOUND ( 'NONE', #241, .T. ) ;
#147 = APPROVAL_DATE_TIME ( #45, #80 ) ;
#148 = DIRECTION ( 'NONE',  ( -3.664998382197393967E-31, -1.000000000000000000, -1.049697256412017316E-16 ) ) ;
#149 = ADVANCED_BREP_SHAPE_REPRESENTATION ( '321211', ( #13, #4, #130 ), #261 ) ;
#150 = LOCAL_TIME ( 14, 11, 4.000000000000000000, #229 ) ;
#151 = AXIS2_PLACEMENT_3D ( 'NONE', #108, #275, #22 ) ;
#152 = AXIS2_PLACEMENT_3D ( 'NONE', #188, #44, #182 ) ;
#153 = EDGE_LOOP ( 'NONE', ( #10 ) ) ;
#154 = ORIENTED_EDGE ( 'NONE', *, *, #53, .T. ) ;
#155 = CIRCLE ( 'NONE', #151, 1.399999999999993472 ) ;
#156 = EDGE_LOOP ( 'NONE', ( #154 ) ) ;
#157 = DATE_AND_TIME ( #251, #150 ) ;
#158 = EDGE_LOOP ( 'NONE', ( #5 ) ) ;
#159 = LOCAL_TIME ( 14, 11, 4.000000000000000000, #71 ) ;
#160 = DIRECTION ( 'NONE',  ( -1.877124702131810677E-30, 1.000000000000000000, -5.283636318155484915E-16 ) ) ;
#161 = CIRCLE ( 'NONE', #51, 1.499999999999997558 ) ;
#162 = CC_DESIGN_PERSON_AND_ORGANIZATION_ASSIGNMENT ( #139, #184, ( #23 ) ) ;
#163 = ORIENTED_EDGE ( 'NONE', *, *, #103, .T. ) ;
#164 = CARTESIAN_POINT ( 'NONE',  ( 3.845860330894856989E-14, 1.538999999999998813, 11.01498177323537853 ) ) ;
#165 = CARTESIAN_POINT ( 'NONE',  ( 8.957261597119120321E-14, -1.499999999999979794, 25.65461684548776233 ) ) ;
#166 = DIRECTION ( 'NONE',  ( 3.491481338843133355E-15, 6.018686094198702209E-16, 1.000000000000000000 ) ) ;
#167 = FACE_BOUND ( 'NONE', #156, .T. ) ;
#168 = DIRECTION ( 'NONE',  ( 2.101413018224943268E-30, -1.000000000000000000, 6.018686094198702209E-16 ) ) ;
#169 = ADVANCED_FACE ( 'NONE', ( #193, #281 ), #91, .T. ) ;
#170 = PLANE ( 'NONE',  #128 ) ;
#171 = VERTEX_POINT ( 'NONE', #259 ) ;
#172 = APPROVAL_STATUS ( 'not_yet_approved' ) ;
#173 = ADVANCED_FACE ( 'NONE', ( #205 ), #235, .T. ) ;
#174 = AXIS2_PLACEMENT_3D ( 'NONE', #206, #43, #299 ) ;
#175 = LOCAL_TIME ( 14, 11, 4.000000000000000000, #268 ) ;
#176 = ADVANCED_FACE ( 'NONE', ( #17 ), #283, .T. ) ;
#177 = CIRCLE ( 'NONE', #246, 1.415192246987776015 ) ;
#178 = ORIENTED_EDGE ( 'NONE', *, *, #75, .F. ) ;
#179 = ORIENTED_EDGE ( 'NONE', *, *, #2, .F. ) ;
#180 = ORIENTED_EDGE ( 'NONE', *, *, #50, .T. ) ;
#181 =( LENGTH_UNIT ( ) NAMED_UNIT ( * ) SI_UNIT ( .MILLI., .METRE. ) );
#182 = DIRECTION ( 'NONE',  ( 3.664998382197393967E-31, 1.000000000000000000, 1.049697256412017316E-16 ) ) ;
#183 = ADVANCED_FACE ( 'NONE', ( #46, #25 ), #260, .F. ) ;
#184 = PERSON_AND_ORGANIZATION_ROLE ( 'design_supplier' ) ;
#185 = DIRECTION ( 'NONE',  ( 0.0000000000000000000, 1.000000000000000000, 0.0000000000000000000 ) ) ;
#186 = APPROVAL_STATUS ( 'not_yet_approved' ) ;
#187 = DIRECTION ( 'NONE',  ( 3.664998382197393967E-31, 1.000000000000000000, 1.049697256412017316E-16 ) ) ;
#188 = CARTESIAN_POINT ( 'NONE',  ( 0.0000000000000000000, 0.0000000000000000000, 0.0000000000000000000 ) ) ;
#189 = CALENDAR_DATE ( 2021, 26, 11 ) ;
#190 = DIRECTION ( 'NONE',  ( -3.491481338843133355E-15, -5.333313554865842796E-16, -1.000000000000000000 ) ) ;
#191 = ORIENTED_EDGE ( 'NONE', *, *, #26, .T. ) ;
#192 = FACE_BOUND ( 'NONE', #52, .T. ) ;
#193 = FACE_BOUND ( 'NONE', #55, .T. ) ;
#194 = CIRCLE ( 'NONE', #61, 1.538999999999999702 ) ;
#195 = CARTESIAN_POINT ( 'NONE',  ( 8.728703347107833388E-14, -1.399999999999965938, 25.00000000000000000 ) ) ;
#196 = ADVANCED_FACE ( 'NONE', ( #301, #192 ), #267, .T. ) ;
#197 = CC_DESIGN_APPROVAL ( #216, ( #23 ) ) ;
#198 = AXIS2_PLACEMENT_3D ( 'NONE', #207, #250, #109 ) ;
#199 = ORIENTED_EDGE ( 'NONE', *, *, #303, .F. ) ;
#200 = ORIENTED_EDGE ( 'NONE', *, *, #26, .F. ) ;
#201 = DATE_AND_TIME ( #105, #214 ) ;
#202 = EDGE_LOOP ( 'NONE', ( #78 ) ) ;
#203 = PERSON_AND_ORGANIZATION_ROLE ( 'design_owner' ) ;
#204 = CARTESIAN_POINT ( 'NONE',  ( 0.0000000000000000000, 0.0000000000000000000, 0.0000000000000000000 ) ) ;
#205 = FACE_OUTER_BOUND ( 'NONE', #29, .T. ) ;
#206 = CARTESIAN_POINT ( 'NONE',  ( 8.728703347107833388E-14, 1.517883041479706208E-14, 25.00000000000000000 ) ) ;
#207 = CARTESIAN_POINT ( 'NONE',  ( 0.0000000000000000000, 0.0000000000000000000, 0.0000000000000000000 ) ) ;
#208 = APPLICATION_CONTEXT ( 'configuration controlled 3d designs of mechanical parts and assemblies' ) ;
#209 = COORDINATED_UNIVERSAL_TIME_OFFSET ( 1, 0, .AHEAD. ) ;
#210 = DIRECTION ( 'NONE',  ( 0.0000000000000000000, -1.000000000000000000, 0.0000000000000000000 ) ) ;
#211 = VERTEX_POINT ( 'NONE', #295 ) ;
#212 = DIRECTION ( 'NONE',  ( 3.491481338843133355E-15, 6.018686094198702209E-16, 1.000000000000000000 ) ) ;
#213 = DIRECTION ( 'NONE',  ( -1.862116475101322479E-30, 1.000000000000000000, -5.333313554865842796E-16 ) ) ;
#214 = LOCAL_TIME ( 14, 11, 4.000000000000000000, #135 ) ;
#215 = CLOSED_SHELL ( 'NONE', ( #110, #293, #169, #240, #183, #125, #176, #129 ) ) ;
#216 = APPROVAL ( #186, 'UNSPECIFIED' ) ;
#217 = SHAPE_DEFINITION_REPRESENTATION ( #288, #149 ) ;
#218 = ADVANCED_FACE ( 'NONE', ( #146 ), #170, .T. ) ;
#219 = PRODUCT_DEFINITION ( 'UNKNOWN', '', #23, #124 ) ;
#220 = ORIENTED_EDGE ( 'NONE', *, *, #53, .F. ) ;
#221 = AXIS2_PLACEMENT_3D ( 'NONE', #72, #190, #236 ) ;
#222 = ORIENTED_EDGE ( 'NONE', *, *, #118, .T. ) ;
#223 =( NAMED_UNIT ( * ) SI_UNIT ( $, .STERADIAN. ) SOLID_ANGLE_UNIT ( ) );
#224 = VERTEX_POINT ( 'NONE', #107 ) ;
#225 = DIRECTION ( 'NONE',  ( -3.491481338843133355E-15, -5.333313554865842796E-16, -1.000000000000000000 ) ) ;
#226 = PERSON_AND_ORGANIZATION_ROLE ( 'creator' ) ;
#227 = VERTEX_POINT ( 'NONE', #195 ) ;
#228 = DIRECTION ( 'NONE',  ( -3.491481338843133355E-15, 1.049697256412017316E-16, -1.000000000000000000 ) ) ;
#229 = COORDINATED_UNIVERSAL_TIME_OFFSET ( 1, 0, .AHEAD. ) ;
#230 = CARTESIAN_POINT ( 'NONE',  ( 2.433562493173664138E-13, 1.499999999999990230, 69.70000000000001705 ) ) ;
#231 = DIRECTION ( 'NONE',  ( 0.0000000000000000000, 1.000000000000000000, 0.0000000000000000000 ) ) ;
#232 = CARTESIAN_POINT ( 'NONE',  ( 2.407750310502070777E-30, 3.677890878256266322E-31, 6.896070970552155775E-16 ) ) ;
#233 = EDGE_LOOP ( 'NONE', ( #163 ) ) ;
#234 = CALENDAR_DATE ( 2021, 26, 11 ) ;
#235 = PLANE ( 'NONE',  #221 ) ;
#236 = DIRECTION ( 'NONE',  ( -1.862116475101322479E-30, 1.000000000000000000, -5.333313554865842796E-16 ) ) ;
#237 = CC_DESIGN_SECURITY_CLASSIFICATION ( #7, ( #23 ) ) ;
#238 = AXIS2_PLACEMENT_3D ( 'NONE', #253, #166, #21 ) ;
#239 = CIRCLE ( 'NONE', #77, 1.199999999999997513 ) ;
#240 = ADVANCED_FACE ( 'NONE', ( #140, #167 ), #242, .T. ) ;
#241 = EDGE_LOOP ( 'NONE', ( #199 ) ) ;
#242 = CONICAL_SURFACE ( 'NONE', #114, 2.124999999999982236, 0.1745329251994328645 ) ;
#243 = PERSON_AND_ORGANIZATION ( #85, #271 ) ;
#244 = CARTESIAN_POINT ( 'NONE',  ( 3.845860330894856989E-14, 1.538999999999998813, 11.01498177323537853 ) ) ;
#245 = LOCAL_TIME ( 14, 11, 4.000000000000000000, #209 ) ;
#246 = AXIS2_PLACEMENT_3D ( 'NONE', #90, #106, #113 ) ;
#247 = DIRECTION ( 'NONE',  ( 1.000000000000000000, 0.0000000000000000000, 0.0000000000000000000 ) ) ;
#248 = DIRECTION ( 'NONE',  ( -3.491481338843133355E-15, 1.049697256412017316E-16, -1.000000000000000000 ) ) ;
#249 = MECHANICAL_CONTEXT ( 'NONE', #208, 'mechanical' ) ;
#250 = DIRECTION ( 'NONE',  ( -3.491481338843133355E-15, -5.333313554865842796E-16, -1.000000000000000000 ) ) ;
#251 = CALENDAR_DATE ( 2021, 26, 11 ) ;
#252 = VERTEX_POINT ( 'NONE', #230 ) ;
#253 = CARTESIAN_POINT ( 'NONE',  ( 8.728703347107833388E-14, 1.504671523549675690E-14, 25.00000000000000000 ) ) ;
#254 = CC_DESIGN_PERSON_AND_ORGANIZATION_ASSIGNMENT ( #57, #226, ( #219 ) ) ;
#255 = DIRECTION ( 'NONE',  ( -3.491481338843133355E-15, 1.049697256412017316E-16, -1.000000000000000000 ) ) ;
#256 = ORIENTED_EDGE ( 'NONE', *, *, #262, .F. ) ;
#257 = FACE_OUTER_BOUND ( 'NONE', #9, .T. ) ;
#258 = UNCERTAINTY_MEASURE_WITH_UNIT (LENGTH_MEASURE( 1.000000000000000082E-05 ), #181, 'distance_accuracy_value', 'NONE');
#259 = CARTESIAN_POINT ( 'NONE',  ( 8.789332284292655368E-14, -1.415192246987760694, 25.17364817766693363 ) ) ;
#260 = TOROIDAL_SURFACE ( 'NONE', #174, 2.399999999999977263, 0.9999999999999965583 ) ;
#261 =( GEOMETRIC_REPRESENTATION_CONTEXT ( 3 ) GLOBAL_UNCERTAINTY_ASSIGNED_CONTEXT ( ( #258 ) ) GLOBAL_UNIT_ASSIGNED_CONTEXT ( ( #181, #269, #223 ) ) REPRESENTATION_CONTEXT ( 'NONE', 'WORKASPACE' ) );
#262 = EDGE_CURVE ( 'NONE', #64, #64, #74, .T. ) ;
#263 = EDGE_LOOP ( 'NONE', ( #83 ) ) ;
#264 = EDGE_LOOP ( 'NONE', ( #191 ) ) ;
#265 = EDGE_CURVE ( 'NONE', #224, #224, #155, .T. ) ;
#266 = ORIENTED_EDGE ( 'NONE', *, *, #303, .T. ) ;
#267 = CONICAL_SURFACE ( 'NONE', #3, 1.394662432702592492, 0.5235987755982971503 ) ;
#268 = COORDINATED_UNIVERSAL_TIME_OFFSET ( 1, 0, .AHEAD. ) ;
#269 =( NAMED_UNIT ( * ) PLANE_ANGLE_UNIT ( ) SI_UNIT ( $, .RADIAN. ) );
#270 = FACE_OUTER_BOUND ( 'NONE', #202, .T. ) ;
#271 = ORGANIZATION ( 'UNSPECIFIED', 'UNSPECIFIED', '' ) ;
#272 = CARTESIAN_POINT ( 'NONE',  ( 3.845860330894856989E-14, -1.156239614679355553E-15, 11.01498177323537853 ) ) ;
#273 = CC_DESIGN_DATE_AND_TIME_ASSIGNMENT ( #282, #98, ( #7 ) ) ;
#274 = APPROVAL_ROLE ( '' ) ;
#275 = DIRECTION ( 'NONE',  ( 3.491481338843133355E-15, 6.018686094198702209E-16, 1.000000000000000000 ) ) ;
#276 = FACE_OUTER_BOUND ( 'NONE', #81, .T. ) ;
#277 = DIRECTION ( 'NONE',  ( 0.0000000000000000000, 0.0000000000000000000, 1.000000000000000000 ) ) ;
#278 = DIRECTION ( 'NONE',  ( 1.862116475101322479E-30, -1.000000000000000000, 5.333313554865842796E-16 ) ) ;
#279 = CYLINDRICAL_SURFACE ( 'NONE', #97, 1.399999999999987255 ) ;
#280 = DIRECTION ( 'NONE',  ( 3.491481338843133355E-15, 6.018686094198702209E-16, 1.000000000000000000 ) ) ;
#281 = FACE_OUTER_BOUND ( 'NONE', #263, .T. ) ;
#282 = DATE_AND_TIME ( #189, #245 ) ;
#283 = PLANE ( 'NONE',  #56 ) ;
#284 = APPROVAL_ROLE ( '' ) ;
#285 = CIRCLE ( 'NONE', #19, 1.538999999999992818 ) ;
#286 = APPROVAL_PERSON_ORGANIZATION ( #145, #80, #284 ) ;
#287 = CIRCLE ( 'NONE', #35, 1.538999999999998591 ) ;
#288 = PRODUCT_DEFINITION_SHAPE ( 'NONE', 'NONE',  #219 ) ;
#289 = APPROVAL_DATE_TIME ( #201, #79 ) ;
#290 = APPROVAL_DATE_TIME ( #157, #216 ) ;
#291 = CARTESIAN_POINT ( 'NONE',  ( 2.433562493173664138E-13, -7.316389877191761450E-15, 69.70000000000001705 ) ) ;
#292 = PERSON_AND_ORGANIZATION ( #85, #271 ) ;
#293 = ADVANCED_FACE ( 'NONE', ( #257 ), #117, .T. ) ;
#294 = CALENDAR_DATE ( 2021, 26, 11 ) ;
#295 = CARTESIAN_POINT ( 'NONE',  ( 2.444036937190193601E-13, 1.199999999999990186, 70.00000000000000000 ) ) ;
#296 = FACE_OUTER_BOUND ( 'NONE', #101, .T. ) ;
#297 = SECURITY_CLASSIFICATION_LEVEL ( 'unclassified' ) ;
#298 = AXIS2_PLACEMENT_3D ( 'NONE', #291, #37, #134 ) ;
#299 = DIRECTION ( 'NONE',  ( 2.163896063879671835E-30, -1.000000000000000000, 6.018686094198701223E-16 ) ) ;
#300 = FACE_OUTER_BOUND ( 'NONE', #233, .T. ) ;
#301 = FACE_OUTER_BOUND ( 'NONE', #126, .T. ) ;
#302 = DIRECTION ( 'NONE',  ( -3.491481338843133355E-15, 1.049697256412017316E-16, -1.000000000000000000 ) ) ;
#303 = EDGE_CURVE ( 'NONE', #30, #30, #285, .T. ) ;
ENDSEC;
END-ISO-10303-21;
