ISO-10303-21;
HEADER;
FILE_DESCRIPTION (( 'STEP AP203' ),
    '1' );
FILE_NAME ('321210.step',
    '2021-11-26T13:11:03',
    ( '' ),
    ( '' ),
    'SwSTEP 2.0',
    'SolidWorks 2019',
    '' );
FILE_SCHEMA (( 'CONFIG_CONTROL_DESIGN' ));
ENDSEC;

DATA;
#1 = DESIGN_CONTEXT ( 'detailed design', #256, 'design' ) ;
#2 = VERTEX_POINT ( 'NONE', #205 ) ;
#3 = CIRCLE ( 'NONE', #13, 1.533999999999998476 ) ;
#4 = FACE_OUTER_BOUND ( 'NONE', #258, .T. ) ;
#5 = DIRECTION ( 'NONE',  ( -3.491481338843133355E-15, -5.327199481598913337E-16, -1.000000000000000000 ) ) ;
#6 = PERSON_AND_ORGANIZATION ( #110, #222 ) ;
#7 = ORIENTED_EDGE ( 'NONE', *, *, #79, .T. ) ;
#8 = ORIENTED_EDGE ( 'NONE', *, *, #88, .T. ) ;
#9 = CARTESIAN_POINT ( 'NONE',  ( 3.929919511603369589E-14, 6.774474677170842422E-15, 11.25573683548745052 ) ) ;
#10 = CARTESIAN_POINT ( 'NONE',  ( 3.848884042431135755E-14, 5.872514009302191505E-15, 11.02364202727322606 ) ) ;
#11 = CARTESIAN_POINT ( 'NONE',  ( 2.395473191729807352E-30, 3.654942503400406427E-31, 6.860907904847983423E-16 ) ) ;
#12 = CARTESIAN_POINT ( 'NONE',  ( 2.433562493173664138E-13, -7.316389877191761450E-15, 69.70000000000001705 ) ) ;
#13 = AXIS2_PLACEMENT_3D ( 'NONE', #80, #81, #173 ) ;
#14 = EDGE_CURVE ( 'NONE', #183, #183, #267, .T. ) ;
#15 = DIRECTION ( 'NONE',  ( 2.163896063879671835E-30, -1.000000000000000000, 6.018686094198701223E-16 ) ) ;
#16 = DIRECTION ( 'NONE',  ( 0.0000000000000000000, -1.000000000000000000, 0.0000000000000000000 ) ) ;
#17 = CARTESIAN_POINT ( 'NONE',  ( 3.848884042431135124E-14, -1.157148679169691277E-15, 11.02364202727322429 ) ) ;
#18 = APPROVAL_DATE_TIME ( #248, #238 ) ;
#19 = AXIS2_PLACEMENT_3D ( 'NONE', #291, #147, #100 ) ;
#20 = PERSON_AND_ORGANIZATION ( #110, #222 ) ;
#21 = DATE_AND_TIME ( #181, #50 ) ;
#22 = VERTEX_POINT ( 'NONE', #69 ) ;
#23 = CC_DESIGN_APPROVAL ( #120, ( #159 ) ) ;
#24 = APPROVAL ( #96, 'UNSPECIFIED' ) ;
#25 = CARTESIAN_POINT ( 'NONE',  ( 8.728703347107831416E-16, 1.533999999999998698, 0.2499999999999999445 ) ) ;
#26 = APPROVAL_ROLE ( '' ) ;
#27 = EDGE_LOOP ( 'NONE', ( #169 ) ) ;
#28 = EDGE_CURVE ( 'NONE', #2, #2, #158, .T. ) ;
#29 = AXIS2_PLACEMENT_3D ( 'NONE', #109, #36, #196 ) ;
#30 =( GEOMETRIC_REPRESENTATION_CONTEXT ( 3 ) GLOBAL_UNCERTAINTY_ASSIGNED_CONTEXT ( ( #182 ) ) GLOBAL_UNIT_ASSIGNED_CONTEXT ( ( #227, #302, #115 ) ) REPRESENTATION_CONTEXT ( 'NONE', 'WORKASPACE' ) );
#31 = ORIENTED_EDGE ( 'NONE', *, *, #88, .F. ) ;
#32 = EDGE_LOOP ( 'NONE', ( #166 ) ) ;
#33 = ORIENTED_EDGE ( 'NONE', *, *, #209, .F. ) ;
#34 = AXIS2_PLACEMENT_3D ( 'NONE', #132, #108, #232 ) ;
#35 = DIRECTION ( 'NONE',  ( 0.0000000000000000000, -1.000000000000000000, 0.0000000000000000000 ) ) ;
#36 = DIRECTION ( 'NONE',  ( -3.491481338843133355E-15, 1.049697256412017316E-16, -1.000000000000000000 ) ) ;
#37 = DIRECTION ( 'NONE',  ( 1.859981757829741861E-30, -1.000000000000000000, 5.327199481598913337E-16 ) ) ;
#38 = AXIS2_PLACEMENT_3D ( 'NONE', #129, #220, #154 ) ;
#39 = CC_DESIGN_APPROVAL ( #24, ( #141 ) ) ;
#40 = FACE_OUTER_BOUND ( 'NONE', #289, .T. ) ;
#41 = FACE_BOUND ( 'NONE', #189, .T. ) ;
#42 = DATE_TIME_ROLE ( 'classification_date' ) ;
#43 = DIRECTION ( 'NONE',  ( -3.491481338843133355E-15, 1.049697256412017316E-16, -1.000000000000000000 ) ) ;
#44 = PERSON_AND_ORGANIZATION ( #110, #222 ) ;
#45 = CARTESIAN_POINT ( 'NONE',  ( 8.957261597119120321E-14, -1.499999999999979794, 25.65461684548776233 ) ) ;
#46 = APPLICATION_PROTOCOL_DEFINITION ( 'international standard', 'config_control_design', 1994, #266 ) ;
#47 = MECHANICAL_CONTEXT ( 'NONE', #266, 'mechanical' ) ;
#48 = CONICAL_SURFACE ( 'NONE', #84, 1.389662432702592598, 0.5235987755982971503 ) ;
#49 = CIRCLE ( 'NONE', #125, 1.389662432702592598 ) ;
#50 = LOCAL_TIME ( 14, 11, 3.000000000000000000, #229 ) ;
#51 = CARTESIAN_POINT ( 'NONE',  ( -1.892735826383161356E-31, 1.389662432702592598, -5.421010862427522170E-17 ) ) ;
#52 = ADVANCED_FACE ( 'NONE', ( #240 ), #217, .T. ) ;
#53 = EDGE_LOOP ( 'NONE', ( #190 ) ) ;
#54 = AXIS2_PLACEMENT_3D ( 'NONE', #247, #58, #82 ) ;
#55 = EDGE_LOOP ( 'NONE', ( #33 ) ) ;
#56 = EDGE_LOOP ( 'NONE', ( #31 ) ) ;
#57 = CYLINDRICAL_SURFACE ( 'NONE', #184, 1.533999999999995589 ) ;
#58 = DIRECTION ( 'NONE',  ( 3.491481338843133355E-15, 6.018686094198702209E-16, 1.000000000000000000 ) ) ;
#59 = DIRECTION ( 'NONE',  ( 3.491481338843133355E-15, 6.018686094198702209E-16, 1.000000000000000000 ) ) ;
#60 = FACE_OUTER_BOUND ( 'NONE', #53, .T. ) ;
#61 = FACE_OUTER_BOUND ( 'NONE', #56, .T. ) ;
#62 = DATE_TIME_ROLE ( 'creation_date' ) ;
#63 = CARTESIAN_POINT ( 'NONE',  ( 8.789332284292655368E-14, -1.415192246987760694, 25.17364817766693363 ) ) ;
#64 = APPROVAL_STATUS ( 'not_yet_approved' ) ;
#65 = APPROVAL_STATUS ( 'not_yet_approved' ) ;
#66 = CARTESIAN_POINT ( 'NONE',  ( 3.929919511603369589E-14, -1.399999999999986811, 11.25573683548745052 ) ) ;
#67 = ADVANCED_FACE ( 'NONE', ( #197, #83 ), #97, .T. ) ;
#68 = VERTEX_POINT ( 'NONE', #45 ) ;
#69 = CARTESIAN_POINT ( 'NONE',  ( 3.848884042431135124E-14, 1.533999999999998698, 11.02364202727322429 ) ) ;
#70 = CIRCLE ( 'NONE', #118, 1.533999999999999808 ) ;
#71 = ORIENTED_EDGE ( 'NONE', *, *, #209, .T. ) ;
#72 = ORIENTED_EDGE ( 'NONE', *, *, #131, .F. ) ;
#73 = AXIS2_PLACEMENT_3D ( 'NONE', #128, #265, #271 ) ;
#74 = CONICAL_SURFACE ( 'NONE', #92, 1.533999999999999808, 0.5235987755982982605 ) ;
#75 = ORIENTED_EDGE ( 'NONE', *, *, #215, .F. ) ;
#76 = ADVANCED_FACE ( 'NONE', ( #155, #246 ), #57, .T. ) ;
#77 = EDGE_LOOP ( 'NONE', ( #187 ) ) ;
#78 = DIRECTION ( 'NONE',  ( 3.491481338843133355E-15, 5.327199481598913337E-16, 1.000000000000000000 ) ) ;
#79 = EDGE_CURVE ( 'NONE', #93, #93, #3, .T. ) ;
#80 = CARTESIAN_POINT ( 'NONE',  ( 8.728703347107860998E-16, 1.331799870399732525E-16, 0.2500000000000007772 ) ) ;
#81 = DIRECTION ( 'NONE',  ( -3.491481338843133355E-15, -5.327199481598913337E-16, -1.000000000000000000 ) ) ;
#82 = DIRECTION ( 'NONE',  ( 2.101413018224943268E-30, -1.000000000000000000, 6.018686094198702209E-16 ) ) ;
#83 = FACE_OUTER_BOUND ( 'NONE', #288, .T. ) ;
#84 = AXIS2_PLACEMENT_3D ( 'NONE', #11, #78, #37 ) ;
#85 = ADVANCED_FACE ( 'NONE', ( #133 ), #269, .T. ) ;
#86 = FACE_OUTER_BOUND ( 'NONE', #239, .T. ) ;
#87 = APPROVAL_DATE_TIME ( #228, #24 ) ;
#88 = EDGE_CURVE ( 'NONE', #185, #185, #283, .T. ) ;
#89 = PLANE ( 'NONE',  #241 ) ;
#90 = CONICAL_SURFACE ( 'NONE', #273, 2.124999999999982236, 0.1745329251994328645 ) ;
#91 = SHAPE_DEFINITION_REPRESENTATION ( #282, #174 ) ;
#92 = AXIS2_PLACEMENT_3D ( 'NONE', #17, #280, #252 ) ;
#93 = VERTEX_POINT ( 'NONE', #25 ) ;
#94 = APPROVAL_DATE_TIME ( #21, #120 ) ;
#95 = CARTESIAN_POINT ( 'NONE',  ( 0.0000000000000000000, 0.0000000000000000000, 0.0000000000000000000 ) ) ;
#96 = APPROVAL_STATUS ( 'not_yet_approved' ) ;
#97 = CONICAL_SURFACE ( 'NONE', #176, 1.499999999999997558, 0.7853981633974573828 ) ;
#98 = APPROVAL_PERSON_ORGANIZATION ( #44, #238, #136 ) ;
#99 = EDGE_LOOP ( 'NONE', ( #123 ) ) ;
#100 = DIRECTION ( 'NONE',  ( 0.0000000000000000000, 1.000000000000000000, 0.0000000000000000000 ) ) ;
#101 = AXIS2_PLACEMENT_3D ( 'NONE', #151, #274, #15 ) ;
#102 = PRODUCT_DEFINITION_FORMATION_WITH_SPECIFIED_SOURCE ( 'ANY', '', #292, .NOT_KNOWN. ) ;
#103 = EDGE_LOOP ( 'NONE', ( #7 ) ) ;
#104 = MANIFOLD_SOLID_BREP ( 'Corps-Déplacer/Copier1[2]', #192 ) ;
#105 = DIRECTION ( 'NONE',  ( -3.491481338843133355E-15, 1.049697256412017316E-16, -1.000000000000000000 ) ) ;
#106 = FACE_OUTER_BOUND ( 'NONE', #235, .T. ) ;
#107 = MANIFOLD_SOLID_BREP ( 'Corps-Déplacer/Copier1[1]', #148 ) ;
#108 = DIRECTION ( 'NONE',  ( 3.491481338843133355E-15, -1.049697256412017316E-16, 1.000000000000000000 ) ) ;
#109 = CARTESIAN_POINT ( 'NONE',  ( 3.848884042431135755E-14, 1.533999999999998698, 11.02364202727322606 ) ) ;
#110 = PERSON ( 'UNSPECIFIED', 'UNSPECIFIED', 'UNSPECIFIED', ('UNSPECIFIED'), ('UNSPECIFIED'), ('UNSPECIFIED') ) ;
#111 = CARTESIAN_POINT ( 'NONE',  ( 8.728703347107833388E-14, 1.504671523549675690E-14, 25.00000000000000000 ) ) ;
#112 = CYLINDRICAL_SURFACE ( 'NONE', #268, 1.499999999999995337 ) ;
#113 = LOCAL_TIME ( 14, 11, 3.000000000000000000, #114 ) ;
#114 = COORDINATED_UNIVERSAL_TIME_OFFSET ( 1, 0, .AHEAD. ) ;
#115 =( NAMED_UNIT ( * ) SI_UNIT ( $, .STERADIAN. ) SOLID_ANGLE_UNIT ( ) );
#116 = PERSON_AND_ORGANIZATION_ROLE ( 'classification_officer' ) ;
#117 = CARTESIAN_POINT ( 'NONE',  ( 2.433562493173664138E-13, 1.499999999999990230, 69.70000000000001705 ) ) ;
#118 = AXIS2_PLACEMENT_3D ( 'NONE', #277, #281, #156 ) ;
#119 = PERSON_AND_ORGANIZATION ( #110, #222 ) ;
#120 = APPROVAL ( #65, 'UNSPECIFIED' ) ;
#121 = ORIENTED_EDGE ( 'NONE', *, *, #215, .T. ) ;
#122 = ADVANCED_FACE ( 'NONE', ( #106, #60 ), #171, .T. ) ;
#123 = ORIENTED_EDGE ( 'NONE', *, *, #14, .F. ) ;
#124 = EDGE_LOOP ( 'NONE', ( #142 ) ) ;
#125 = AXIS2_PLACEMENT_3D ( 'NONE', #244, #225, #223 ) ;
#126 = LOCAL_TIME ( 14, 11, 3.000000000000000000, #297 ) ;
#127 = ORIENTED_EDGE ( 'NONE', *, *, #152, .T. ) ;
#128 = CARTESIAN_POINT ( 'NONE',  ( 2.444036937190193601E-13, -7.347880794884121511E-15, 70.00000000000000000 ) ) ;
#129 = CARTESIAN_POINT ( 'NONE',  ( 8.957261597119120321E-14, 1.544070856599329525E-14, 25.65461684548776233 ) ) ;
#130 = DIRECTION ( 'NONE',  ( 0.0000000000000000000, -1.000000000000000000, 0.0000000000000000000 ) ) ;
#131 = EDGE_CURVE ( 'NONE', #230, #230, #233, .T. ) ;
#132 = CARTESIAN_POINT ( 'NONE',  ( 2.444036937190193601E-13, -7.347880794884121511E-15, 70.00000000000000000 ) ) ;
#133 = FACE_OUTER_BOUND ( 'NONE', #32, .T. ) ;
#134 = PERSON_AND_ORGANIZATION ( #110, #222 ) ;
#135 = ADVANCED_FACE ( 'NONE', ( #270, #41 ), #90, .T. ) ;
#136 = APPROVAL_ROLE ( '' ) ;
#137 = VERTEX_POINT ( 'NONE', #117 ) ;
#138 = AXIS2_PLACEMENT_3D ( 'NONE', #9, #167, #260 ) ;
#139 = FACE_OUTER_BOUND ( 'NONE', #144, .T. ) ;
#140 = COORDINATED_UNIVERSAL_TIME_OFFSET ( 1, 0, .AHEAD. ) ;
#141 = PRODUCT_DEFINITION ( 'UNKNOWN', '', #102, #1 ) ;
#142 = ORIENTED_EDGE ( 'NONE', *, *, #188, .F. ) ;
#143 = AXIS2_PLACEMENT_3D ( 'NONE', #10, #191, #170 ) ;
#144 = EDGE_LOOP ( 'NONE', ( #164 ) ) ;
#145 = CALENDAR_DATE ( 2021, 26, 11 ) ;
#146 = EDGE_LOOP ( 'NONE', ( #194 ) ) ;
#147 = DIRECTION ( 'NONE',  ( -3.491481338843133355E-15, -5.327199481598913337E-16, -1.000000000000000000 ) ) ;
#148 = CLOSED_SHELL ( 'NONE', ( #286, #242, #67, #135, #195, #122, #85, #253 ) ) ;
#149 = DIRECTION ( 'NONE',  ( 0.0000000000000000000, 1.000000000000000000, 0.0000000000000000000 ) ) ;
#150 = FACE_BOUND ( 'NONE', #55, .T. ) ;
#151 = CARTESIAN_POINT ( 'NONE',  ( 8.728703347107833388E-14, 1.517883041479706208E-14, 25.00000000000000000 ) ) ;
#152 = EDGE_CURVE ( 'NONE', #257, #257, #221, .T. ) ;
#153 = TOROIDAL_SURFACE ( 'NONE', #101, 2.399999999999977263, 0.9999999999999965583 ) ;
#154 = DIRECTION ( 'NONE',  ( 0.0000000000000000000, -1.000000000000000000, 0.0000000000000000000 ) ) ;
#155 = FACE_OUTER_BOUND ( 'NONE', #146, .T. ) ;
#156 = DIRECTION ( 'NONE',  ( 0.0000000000000000000, 1.000000000000000000, 0.0000000000000000000 ) ) ;
#157 = PERSON_AND_ORGANIZATION ( #110, #222 ) ;
#158 = CIRCLE ( 'NONE', #19, 1.533999999999992925 ) ;
#159 = SECURITY_CLASSIFICATION ( '', '', #276 ) ;
#160 = CALENDAR_DATE ( 2021, 26, 11 ) ;
#161 = DIRECTION ( 'NONE',  ( 0.0000000000000000000, 0.0000000000000000000, 1.000000000000000000 ) ) ;
#162 = AXIS2_PLACEMENT_3D ( 'NONE', #12, #105, #204 ) ;
#163 = CC_DESIGN_SECURITY_CLASSIFICATION ( #159, ( #102 ) ) ;
#164 = ORIENTED_EDGE ( 'NONE', *, *, #261, .F. ) ;
#165 = CC_DESIGN_PERSON_AND_ORGANIZATION_ASSIGNMENT ( #134, #206, ( #102 ) ) ;
#166 = ORIENTED_EDGE ( 'NONE', *, *, #261, .T. ) ;
#167 = DIRECTION ( 'NONE',  ( 3.491481338843133355E-15, 6.018686094198702209E-16, 1.000000000000000000 ) ) ;
#168 = CIRCLE ( 'NONE', #38, 1.499999999999995337 ) ;
#169 = ORIENTED_EDGE ( 'NONE', *, *, #79, .F. ) ;
#170 = DIRECTION ( 'NONE',  ( 1.859981757829742211E-30, -1.000000000000000000, 5.327199481598913337E-16 ) ) ;
#171 = CYLINDRICAL_SURFACE ( 'NONE', #54, 1.399999999999987255 ) ;
#172 = CC_DESIGN_DATE_AND_TIME_ASSIGNMENT ( #250, #62, ( #141 ) ) ;
#173 = DIRECTION ( 'NONE',  ( -1.883243100769789106E-30, 1.000000000000000000, -5.300858079296799791E-16 ) ) ;
#174 = ADVANCED_BREP_SHAPE_REPRESENTATION ( '321210', ( #107, #104, #200 ), #30 ) ;
#175 = DIRECTION ( 'NONE',  ( 3.491481338843133355E-15, 6.018686094198702209E-16, 1.000000000000000000 ) ) ;
#176 = AXIS2_PLACEMENT_3D ( 'NONE', #202, #294, #149 ) ;
#177 = CARTESIAN_POINT ( 'NONE',  ( 8.789332284292655368E-14, 1.515122862271744924E-14, 25.17364817766693363 ) ) ;
#178 = APPROVAL_PERSON_ORGANIZATION ( #6, #24, #26 ) ;
#179 = DIRECTION ( 'NONE',  ( 3.664998382197393967E-31, 1.000000000000000000, 1.049697256412017316E-16 ) ) ;
#180 = PERSON_AND_ORGANIZATION_ROLE ( 'design_supplier' ) ;
#181 = CALENDAR_DATE ( 2021, 26, 11 ) ;
#182 = UNCERTAINTY_MEASURE_WITH_UNIT (LENGTH_MEASURE( 1.000000000000000082E-05 ), #227, 'distance_accuracy_value', 'NONE');
#183 = VERTEX_POINT ( 'NONE', #66 ) ;
#184 = AXIS2_PLACEMENT_3D ( 'NONE', #295, #296, #293 ) ;
#185 = VERTEX_POINT ( 'NONE', #63 ) ;
#186 = CARTESIAN_POINT ( 'NONE',  ( 2.444036937190193601E-13, 1.199999999999990186, 70.00000000000000000 ) ) ;
#187 = ORIENTED_EDGE ( 'NONE', *, *, #28, .F. ) ;
#188 = EDGE_CURVE ( 'NONE', #68, #68, #168, .T. ) ;
#189 = EDGE_LOOP ( 'NONE', ( #8 ) ) ;
#190 = ORIENTED_EDGE ( 'NONE', *, *, #152, .F. ) ;
#191 = DIRECTION ( 'NONE',  ( 3.491481338843133355E-15, 5.327199481598913337E-16, 1.000000000000000000 ) ) ;
#192 = CLOSED_SHELL ( 'NONE', ( #52, #76, #199, #264 ) ) ;
#193 = APPROVAL_PERSON_ORGANIZATION ( #212, #120, #301 ) ;
#194 = ORIENTED_EDGE ( 'NONE', *, *, #28, .T. ) ;
#195 = ADVANCED_FACE ( 'NONE', ( #40, #61 ), #153, .F. ) ;
#196 = DIRECTION ( 'NONE',  ( 3.664998382197393967E-31, 1.000000000000000000, 1.049697256412017316E-16 ) ) ;
#197 = FACE_BOUND ( 'NONE', #259, .T. ) ;
#198 = AXIS2_PLACEMENT_3D ( 'NONE', #177, #243, #16 ) ;
#199 = ADVANCED_FACE ( 'NONE', ( #245, #150 ), #48, .T. ) ;
#200 = AXIS2_PLACEMENT_3D ( 'NONE', #210, #161, #255 ) ;
#201 = CC_DESIGN_PERSON_AND_ORGANIZATION_ASSIGNMENT ( #20, #116, ( #159 ) ) ;
#202 = CARTESIAN_POINT ( 'NONE',  ( 2.433562493173664138E-13, -7.316389877191761450E-15, 69.70000000000001705 ) ) ;
#203 = PLANE ( 'NONE',  #34 ) ;
#204 = DIRECTION ( 'NONE',  ( 0.0000000000000000000, 1.000000000000000000, 0.0000000000000000000 ) ) ;
#205 = CARTESIAN_POINT ( 'NONE',  ( 3.848884042431135124E-14, 1.533999999999998698, 11.02364202727322429 ) ) ;
#206 = PERSON_AND_ORGANIZATION_ROLE ( 'creator' ) ;
#207 = VERTEX_POINT ( 'NONE', #51 ) ;
#208 = COORDINATED_UNIVERSAL_TIME_OFFSET ( 1, 0, .AHEAD. ) ;
#209 = EDGE_CURVE ( 'NONE', #207, #207, #49, .T. ) ;
#210 = CARTESIAN_POINT ( 'NONE',  ( 0.0000000000000000000, 0.0000000000000000000, 0.0000000000000000000 ) ) ;
#211 = LOCAL_TIME ( 14, 11, 3.000000000000000000, #208 ) ;
#212 = PERSON_AND_ORGANIZATION ( #110, #222 ) ;
#213 = FACE_BOUND ( 'NONE', #99, .T. ) ;
#214 = PERSON_AND_ORGANIZATION_ROLE ( 'design_owner' ) ;
#215 = EDGE_CURVE ( 'NONE', #137, #137, #298, .T. ) ;
#216 = ORIENTED_EDGE ( 'NONE', *, *, #14, .T. ) ;
#217 = PLANE ( 'NONE',  #143 ) ;
#218 = FACE_OUTER_BOUND ( 'NONE', #262, .T. ) ;
#219 = PRODUCT_RELATED_PRODUCT_CATEGORY ( 'detail', '', ( #292 ) ) ;
#220 = DIRECTION ( 'NONE',  ( 3.491481338843133355E-15, 6.018686094198702209E-16, 1.000000000000000000 ) ) ;
#221 = CIRCLE ( 'NONE', #290, 1.399999999999980815 ) ;
#222 = ORGANIZATION ( 'UNSPECIFIED', 'UNSPECIFIED', '' ) ;
#223 = DIRECTION ( 'NONE',  ( -1.859981757829741861E-30, 1.000000000000000000, -5.327199481598913337E-16 ) ) ;
#224 = CARTESIAN_POINT ( 'NONE',  ( 1.019483501215131844E-13, 1.757406262999419099E-14, 29.19916798274875802 ) ) ;
#225 = DIRECTION ( 'NONE',  ( -3.491481338843133355E-15, -5.327199481598913337E-16, -1.000000000000000000 ) ) ;
#226 = CALENDAR_DATE ( 2021, 26, 11 ) ;
#227 =( LENGTH_UNIT ( ) NAMED_UNIT ( * ) SI_UNIT ( .MILLI., .METRE. ) );
#228 = DATE_AND_TIME ( #145, #251 ) ;
#229 = COORDINATED_UNIVERSAL_TIME_OFFSET ( 1, 0, .AHEAD. ) ;
#230 = VERTEX_POINT ( 'NONE', #186 ) ;
#231 = CC_DESIGN_DATE_AND_TIME_ASSIGNMENT ( #249, #42, ( #159 ) ) ;
#232 = DIRECTION ( 'NONE',  ( -3.664998382197393967E-31, -1.000000000000000000, -1.049697256412017316E-16 ) ) ;
#233 = CIRCLE ( 'NONE', #73, 1.199999999999997513 ) ;
#234 = APPLICATION_PROTOCOL_DEFINITION ( 'international standard', 'config_control_design', 1994, #256 ) ;
#235 = EDGE_LOOP ( 'NONE', ( #216 ) ) ;
#236 = CC_DESIGN_APPROVAL ( #238, ( #102 ) ) ;
#237 = EDGE_LOOP ( 'NONE', ( #263 ) ) ;
#238 = APPROVAL ( #64, 'UNSPECIFIED' ) ;
#239 = EDGE_LOOP ( 'NONE', ( #71 ) ) ;
#240 = FACE_OUTER_BOUND ( 'NONE', #77, .T. ) ;
#241 = AXIS2_PLACEMENT_3D ( 'NONE', #279, #5, #275 ) ;
#242 = ADVANCED_FACE ( 'NONE', ( #218 ), #203, .T. ) ;
#243 = DIRECTION ( 'NONE',  ( 3.491481338843133355E-15, 6.018686094198702209E-16, 1.000000000000000000 ) ) ;
#244 = CARTESIAN_POINT ( 'NONE',  ( 2.395473191729807352E-30, 3.654942503400406427E-31, 6.860907904847983423E-16 ) ) ;
#245 = FACE_OUTER_BOUND ( 'NONE', #103, .T. ) ;
#246 = FACE_OUTER_BOUND ( 'NONE', #27, .T. ) ;
#247 = CARTESIAN_POINT ( 'NONE',  ( 0.0000000000000000000, 0.0000000000000000000, 0.0000000000000000000 ) ) ;
#248 = DATE_AND_TIME ( #160, #126 ) ;
#249 = DATE_AND_TIME ( #303, #211 ) ;
#250 = DATE_AND_TIME ( #226, #113 ) ;
#251 = LOCAL_TIME ( 14, 11, 3.000000000000000000, #140 ) ;
#252 = DIRECTION ( 'NONE',  ( 0.0000000000000000000, 1.000000000000000000, 0.0000000000000000000 ) ) ;
#253 = ADVANCED_FACE ( 'NONE', ( #139, #213 ), #74, .T. ) ;
#254 = FACE_OUTER_BOUND ( 'NONE', #237, .T. ) ;
#255 = DIRECTION ( 'NONE',  ( 1.000000000000000000, 0.0000000000000000000, 0.0000000000000000000 ) ) ;
#256 = APPLICATION_CONTEXT ( 'configuration controlled 3d designs of mechanical parts and assemblies' ) ;
#257 = VERTEX_POINT ( 'NONE', #299 ) ;
#258 = EDGE_LOOP ( 'NONE', ( #121 ) ) ;
#259 = EDGE_LOOP ( 'NONE', ( #284 ) ) ;
#260 = DIRECTION ( 'NONE',  ( 0.0000000000000000000, -1.000000000000000000, 0.0000000000000000000 ) ) ;
#261 = EDGE_CURVE ( 'NONE', #22, #22, #70, .T. ) ;
#262 = EDGE_LOOP ( 'NONE', ( #72 ) ) ;
#263 = ORIENTED_EDGE ( 'NONE', *, *, #188, .T. ) ;
#264 = ADVANCED_FACE ( 'NONE', ( #86 ), #89, .T. ) ;
#265 = DIRECTION ( 'NONE',  ( -3.491481338843133355E-15, 1.049697256412017316E-16, -1.000000000000000000 ) ) ;
#266 = APPLICATION_CONTEXT ( 'configuration controlled 3d designs of mechanical parts and assemblies' ) ;
#267 = CIRCLE ( 'NONE', #138, 1.399999999999993472 ) ;
#268 = AXIS2_PLACEMENT_3D ( 'NONE', #95, #43, #179 ) ;
#269 = PLANE ( 'NONE',  #29 ) ;
#270 = FACE_OUTER_BOUND ( 'NONE', #124, .T. ) ;
#271 = DIRECTION ( 'NONE',  ( 0.0000000000000000000, 1.000000000000000000, 0.0000000000000000000 ) ) ;
#272 = CC_DESIGN_PERSON_AND_ORGANIZATION_ASSIGNMENT ( #119, #214, ( #292 ) ) ;
#273 = AXIS2_PLACEMENT_3D ( 'NONE', #224, #59, #130 ) ;
#274 = DIRECTION ( 'NONE',  ( 3.491481338843133355E-15, 6.018686094198702209E-16, 1.000000000000000000 ) ) ;
#275 = DIRECTION ( 'NONE',  ( -1.859981757829742211E-30, 1.000000000000000000, -5.327199481598913337E-16 ) ) ;
#276 = SECURITY_CLASSIFICATION_LEVEL ( 'unclassified' ) ;
#277 = CARTESIAN_POINT ( 'NONE',  ( 3.848884042431135124E-14, -1.157148679169691277E-15, 11.02364202727322429 ) ) ;
#278 = PERSON_AND_ORGANIZATION_ROLE ( 'creator' ) ;
#279 = CARTESIAN_POINT ( 'NONE',  ( -1.387010178503219790E-30, 1.389662432702592598, -3.972555038666743929E-16 ) ) ;
#280 = DIRECTION ( 'NONE',  ( -3.491481338843133355E-15, 1.049697256412017316E-16, -1.000000000000000000 ) ) ;
#281 = DIRECTION ( 'NONE',  ( -3.491481338843133355E-15, 1.049697256412017316E-16, -1.000000000000000000 ) ) ;
#282 = PRODUCT_DEFINITION_SHAPE ( 'NONE', 'NONE',  #141 ) ;
#283 = CIRCLE ( 'NONE', #198, 1.415192246987776015 ) ;
#284 = ORIENTED_EDGE ( 'NONE', *, *, #131, .T. ) ;
#285 = CC_DESIGN_PERSON_AND_ORGANIZATION_ASSIGNMENT ( #157, #278, ( #141 ) ) ;
#286 = ADVANCED_FACE ( 'NONE', ( #4, #254 ), #112, .T. ) ;
#287 = CC_DESIGN_PERSON_AND_ORGANIZATION_ASSIGNMENT ( #300, #180, ( #102 ) ) ;
#288 = EDGE_LOOP ( 'NONE', ( #75 ) ) ;
#289 = EDGE_LOOP ( 'NONE', ( #127 ) ) ;
#290 = AXIS2_PLACEMENT_3D ( 'NONE', #111, #175, #35 ) ;
#291 = CARTESIAN_POINT ( 'NONE',  ( 3.848884042431135124E-14, 5.872514009302190716E-15, 11.02364202727322429 ) ) ;
#292 = PRODUCT ( '321210', '321210', '', ( #47 ) ) ;
#293 = DIRECTION ( 'NONE',  ( -1.859981757829741861E-30, 1.000000000000000000, -5.327199481598914323E-16 ) ) ;
#294 = DIRECTION ( 'NONE',  ( -3.491481338843133355E-15, 1.049697256412017316E-16, -1.000000000000000000 ) ) ;
#295 = CARTESIAN_POINT ( 'NONE',  ( 0.0000000000000000000, 0.0000000000000000000, 0.0000000000000000000 ) ) ;
#296 = DIRECTION ( 'NONE',  ( -3.491481338843133355E-15, -5.327199481598913337E-16, -1.000000000000000000 ) ) ;
#297 = COORDINATED_UNIVERSAL_TIME_OFFSET ( 1, 0, .AHEAD. ) ;
#298 = CIRCLE ( 'NONE', #162, 1.499999999999997558 ) ;
#299 = CARTESIAN_POINT ( 'NONE',  ( 8.728703347107833388E-14, -1.399999999999965938, 25.00000000000000000 ) ) ;
#300 = PERSON_AND_ORGANIZATION ( #110, #222 ) ;
#301 = APPROVAL_ROLE ( '' ) ;
#302 =( NAMED_UNIT ( * ) PLANE_ANGLE_UNIT ( ) SI_UNIT ( $, .RADIAN. ) );
#303 = CALENDAR_DATE ( 2021, 26, 11 ) ;
ENDSEC;
END-ISO-10303-21;
