ISO-10303-21;
HEADER;
FILE_DESCRIPTION (( 'STEP AP203' ),
    '1' );
FILE_NAME ('321209.step',
    '2021-11-26T13:11:03',
    ( '' ),
    ( '' ),
    'SwSTEP 2.0',
    'SolidWorks 2019',
    '' );
FILE_SCHEMA (( 'CONFIG_CONTROL_DESIGN' ));
ENDSEC;

DATA;
#1 = DIRECTION ( 'NONE',  ( 3.491481338843133355E-15, 6.018686094198702209E-16, 1.000000000000000000 ) ) ;
#2 = CIRCLE ( 'NONE', #60, 1.528999999999992809 ) ;
#3 = CARTESIAN_POINT ( 'NONE',  ( 8.728703347107833388E-14, 1.504671523549675690E-14, 25.00000000000000000 ) ) ;
#4 = DIRECTION ( 'NONE',  ( 0.0000000000000000000, 1.000000000000000000, 0.0000000000000000000 ) ) ;
#5 =( NAMED_UNIT ( * ) PLANE_ANGLE_UNIT ( ) SI_UNIT ( $, .RADIAN. ) );
#6 = EDGE_CURVE ( 'NONE', #299, #299, #2, .T. ) ;
#7 = APPROVAL_STATUS ( 'not_yet_approved' ) ;
#8 = ORIENTED_EDGE ( 'NONE', *, *, #6, .T. ) ;
#9 = EDGE_LOOP ( 'NONE', ( #163 ) ) ;
#10 = APPLICATION_CONTEXT ( 'configuration controlled 3d designs of mechanical parts and assemblies' ) ;
#11 = ORIENTED_EDGE ( 'NONE', *, *, #269, .F. ) ;
#12 = CONICAL_SURFACE ( 'NONE', #286, 1.499999999999997558, 0.7853981633974573828 ) ;
#13 = DIRECTION ( 'NONE',  ( 2.101413018224943268E-30, -1.000000000000000000, 6.018686094198702209E-16 ) ) ;
#14 = ADVANCED_FACE ( 'NONE', ( #233, #67 ), #209, .T. ) ;
#15 = DIRECTION ( 'NONE',  ( 3.491481338843133355E-15, 6.018686094198702209E-16, 1.000000000000000000 ) ) ;
#16 = CLOSED_SHELL ( 'NONE', ( #143, #31, #259, #174, #204, #94, #40, #223 ) ) ;
#17 = FACE_OUTER_BOUND ( 'NONE', #148, .T. ) ;
#18 = DIRECTION ( 'NONE',  ( -1.857850392024322964E-30, 1.000000000000000000, -5.321095007312577631E-16 ) ) ;
#19 = VERTEX_POINT ( 'NONE', #145 ) ;
#20 = CIRCLE ( 'NONE', #80, 1.199999999999997513 ) ;
#21 = AXIS2_PLACEMENT_3D ( 'NONE', #283, #120, #218 ) ;
#22 = FACE_OUTER_BOUND ( 'NONE', #128, .T. ) ;
#23 = COORDINATED_UNIVERSAL_TIME_OFFSET ( 1, 0, .AHEAD. ) ;
#24 = APPROVAL_STATUS ( 'not_yet_approved' ) ;
#25 = CARTESIAN_POINT ( 'NONE',  ( -1.892735826383158072E-31, 1.384662432702592483, -5.421010862427522170E-17 ) ) ;
#26 = EDGE_CURVE ( 'NONE', #56, #56, #104, .T. ) ;
#27 = DIRECTION ( 'NONE',  ( 0.0000000000000000000, 1.000000000000000000, 0.0000000000000000000 ) ) ;
#28 = AXIS2_PLACEMENT_3D ( 'NONE', #263, #186, #164 ) ;
#29 = VERTEX_POINT ( 'NONE', #126 ) ;
#30 = MANIFOLD_SOLID_BREP ( 'Corps-Déplacer/Copier1[2]', #69 ) ;
#31 = ADVANCED_FACE ( 'NONE', ( #249 ), #87, .T. ) ;
#32 = MANIFOLD_SOLID_BREP ( 'Corps-Déplacer/Copier1[1]', #16 ) ;
#33 = ADVANCED_BREP_SHAPE_REPRESENTATION ( '321209', ( #32, #30, #140 ), #130 ) ;
#34 = ORIENTED_EDGE ( 'NONE', *, *, #273, .T. ) ;
#35 = EDGE_CURVE ( 'NONE', #171, #171, #98, .T. ) ;
#36 = PRODUCT ( '321209', '321209', '', ( #300 ) ) ;
#37 = ORIENTED_EDGE ( 'NONE', *, *, #176, .F. ) ;
#38 = AXIS2_PLACEMENT_3D ( 'NONE', #88, #136, #182 ) ;
#39 = ORIENTED_EDGE ( 'NONE', *, *, #243, .T. ) ;
#40 = ADVANCED_FACE ( 'NONE', ( #161 ), #250, .T. ) ;
#41 = CARTESIAN_POINT ( 'NONE',  ( 3.851907753967411366E-14, 1.528999999999998582, 11.03230228131106472 ) ) ;
#42 = FACE_OUTER_BOUND ( 'NONE', #115, .T. ) ;
#43 = CYLINDRICAL_SURFACE ( 'NONE', #211, 1.399999999999987255 ) ;
#44 = CIRCLE ( 'NONE', #289, 1.399999999999993472 ) ;
#45 = CC_DESIGN_PERSON_AND_ORGANIZATION_ASSIGNMENT ( #170, #102, ( #253 ) ) ;
#46 = CARTESIAN_POINT ( 'NONE',  ( 3.929919511603369589E-14, 6.774474677170842422E-15, 11.25573683548745052 ) ) ;
#47 = FACE_BOUND ( 'NONE', #203, .T. ) ;
#48 = DATE_AND_TIME ( #258, #236 ) ;
#49 = FACE_OUTER_BOUND ( 'NONE', #222, .T. ) ;
#50 = PERSON_AND_ORGANIZATION ( #81, #185 ) ;
#51 = CC_DESIGN_PERSON_AND_ORGANIZATION_ASSIGNMENT ( #194, #282, ( #253 ) ) ;
#52 = FACE_OUTER_BOUND ( 'NONE', #57, .T. ) ;
#53 = CARTESIAN_POINT ( 'NONE',  ( 8.957261597119120321E-14, -1.499999999999979794, 25.65461684548776233 ) ) ;
#54 = DATE_AND_TIME ( #188, #105 ) ;
#55 = TOROIDAL_SURFACE ( 'NONE', #90, 2.399999999999977263, 0.9999999999999965583 ) ;
#56 = VERTEX_POINT ( 'NONE', #241 ) ;
#57 = EDGE_LOOP ( 'NONE', ( #59 ) ) ;
#58 = CALENDAR_DATE ( 2021, 26, 11 ) ;
#59 = ORIENTED_EDGE ( 'NONE', *, *, #6, .F. ) ;
#60 = AXIS2_PLACEMENT_3D ( 'NONE', #207, #229, #132 ) ;
#61 = CC_DESIGN_APPROVAL ( #214, ( #147 ) ) ;
#62 = SECURITY_CLASSIFICATION_LEVEL ( 'unclassified' ) ;
#63 = SHAPE_DEFINITION_REPRESENTATION ( #225, #33 ) ;
#64 = ADVANCED_FACE ( 'NONE', ( #85, #228 ), #206, .T. ) ;
#65 = CARTESIAN_POINT ( 'NONE',  ( 0.0000000000000000000, 0.0000000000000000000, 0.0000000000000000000 ) ) ;
#66 = DIRECTION ( 'NONE',  ( 3.491481338843133355E-15, 6.018686094198702209E-16, 1.000000000000000000 ) ) ;
#67 = FACE_OUTER_BOUND ( 'NONE', #272, .T. ) ;
#68 = ORIENTED_EDGE ( 'NONE', *, *, #153, .F. ) ;
#69 = CLOSED_SHELL ( 'NONE', ( #230, #14, #64, #266 ) ) ;
#70 = DIRECTION ( 'NONE',  ( 0.0000000000000000000, -1.000000000000000000, 0.0000000000000000000 ) ) ;
#71 = APPLICATION_PROTOCOL_DEFINITION ( 'international standard', 'config_control_design', 1994, #117 ) ;
#72 = CARTESIAN_POINT ( 'NONE',  ( 2.433562493173664138E-13, -7.316389877191761450E-15, 69.70000000000001705 ) ) ;
#73 = DATE_AND_TIME ( #123, #151 ) ;
#74 = APPROVAL_DATE_TIME ( #54, #159 ) ;
#75 = LOCAL_TIME ( 14, 11, 3.000000000000000000, #107 ) ;
#76 = DIRECTION ( 'NONE',  ( -3.491481338843133355E-15, -5.321095007312576645E-16, -1.000000000000000000 ) ) ;
#77 = DIRECTION ( 'NONE',  ( 3.491481338843133355E-15, 6.018686094198702209E-16, 1.000000000000000000 ) ) ;
#78 = VERTEX_POINT ( 'NONE', #146 ) ;
#79 = CIRCLE ( 'NONE', #183, 1.384662432702592483 ) ;
#80 = AXIS2_PLACEMENT_3D ( 'NONE', #279, #97, #281 ) ;
#81 = PERSON ( 'UNSPECIFIED', 'UNSPECIFIED', 'UNSPECIFIED', ('UNSPECIFIED'), ('UNSPECIFIED'), ('UNSPECIFIED') ) ;
#82 = EDGE_LOOP ( 'NONE', ( #8 ) ) ;
#83 = ORIENTED_EDGE ( 'NONE', *, *, #243, .F. ) ;
#84 = DIRECTION ( 'NONE',  ( 3.491481338843133355E-15, 6.018686094198702209E-16, 1.000000000000000000 ) ) ;
#85 = FACE_OUTER_BOUND ( 'NONE', #9, .T. ) ;
#86 = EDGE_CURVE ( 'NONE', #78, #78, #44, .T. ) ;
#87 = PLANE ( 'NONE',  #199 ) ;
#88 = CARTESIAN_POINT ( 'NONE',  ( 0.0000000000000000000, 0.0000000000000000000, 0.0000000000000000000 ) ) ;
#89 = DIRECTION ( 'NONE',  ( -1.857850392024322614E-30, 1.000000000000000000, -5.321095007312576645E-16 ) ) ;
#90 = AXIS2_PLACEMENT_3D ( 'NONE', #217, #1, #169 ) ;
#91 = AXIS2_PLACEMENT_3D ( 'NONE', #260, #195, #144 ) ;
#92 = APPROVAL_PERSON_ORGANIZATION ( #270, #287, #292 ) ;
#93 = PLANE ( 'NONE',  #200 ) ;
#94 = ADVANCED_FACE ( 'NONE', ( #160, #42 ), #43, .T. ) ;
#95 = DESIGN_CONTEXT ( 'detailed design', #10, 'design' ) ;
#96 = APPROVAL_DATE_TIME ( #73, #214 ) ;
#97 = DIRECTION ( 'NONE',  ( -3.491481338843133355E-15, 1.049697256412017316E-16, -1.000000000000000000 ) ) ;
#98 = CIRCLE ( 'NONE', #139, 1.499999999999995337 ) ;
#99 = COORDINATED_UNIVERSAL_TIME_OFFSET ( 1, 0, .AHEAD. ) ;
#100 = CC_DESIGN_SECURITY_CLASSIFICATION ( #298, ( #253 ) ) ;
#101 = FACE_BOUND ( 'NONE', #196, .T. ) ;
#102 = PERSON_AND_ORGANIZATION_ROLE ( 'design_supplier' ) ;
#103 = VERTEX_POINT ( 'NONE', #25 ) ;
#104 = CIRCLE ( 'NONE', #156, 1.415192246987776015 ) ;
#105 = LOCAL_TIME ( 14, 11, 3.000000000000000000, #99 ) ;
#106 = EDGE_LOOP ( 'NONE', ( #155 ) ) ;
#107 = COORDINATED_UNIVERSAL_TIME_OFFSET ( 1, 0, .AHEAD. ) ;
#108 = AXIS2_PLACEMENT_3D ( 'NONE', #210, #296, #235 ) ;
#109 = CC_DESIGN_DATE_AND_TIME_ASSIGNMENT ( #48, #219, ( #147 ) ) ;
#110 = CC_DESIGN_APPROVAL ( #159, ( #253 ) ) ;
#111 = ORIENTED_EDGE ( 'NONE', *, *, #35, .T. ) ;
#112 = EDGE_LOOP ( 'NONE', ( #111 ) ) ;
#113 = DATE_AND_TIME ( #58, #116 ) ;
#114 = EDGE_LOOP ( 'NONE', ( #247 ) ) ;
#115 = EDGE_LOOP ( 'NONE', ( #265 ) ) ;
#116 = LOCAL_TIME ( 14, 11, 3.000000000000000000, #198 ) ;
#117 = APPLICATION_CONTEXT ( 'configuration controlled 3d designs of mechanical parts and assemblies' ) ;
#118 = FACE_OUTER_BOUND ( 'NONE', #112, .T. ) ;
#119 = FACE_OUTER_BOUND ( 'NONE', #291, .T. ) ;
#120 = DIRECTION ( 'NONE',  ( -3.491481338843133355E-15, 1.049697256412017316E-16, -1.000000000000000000 ) ) ;
#121 = AXIS2_PLACEMENT_3D ( 'NONE', #278, #284, #4 ) ;
#122 = DIRECTION ( 'NONE',  ( -1.857850392024322614E-30, 1.000000000000000000, -5.321095007312576645E-16 ) ) ;
#123 = CALENDAR_DATE ( 2021, 26, 11 ) ;
#124 = VERTEX_POINT ( 'NONE', #213 ) ;
#125 = CARTESIAN_POINT ( 'NONE',  ( -1.380884613028090196E-30, 1.384662432702592483, -3.955010721854902502E-16 ) ) ;
#126 = CARTESIAN_POINT ( 'NONE',  ( 8.728703347107833388E-14, -1.399999999999965938, 25.00000000000000000 ) ) ;
#127 =( NAMED_UNIT ( * ) SI_UNIT ( $, .STERADIAN. ) SOLID_ANGLE_UNIT ( ) );
#128 = EDGE_LOOP ( 'NONE', ( #11 ) ) ;
#129 = EDGE_LOOP ( 'NONE', ( #175 ) ) ;
#130 =( GEOMETRIC_REPRESENTATION_CONTEXT ( 3 ) GLOBAL_UNCERTAINTY_ASSIGNED_CONTEXT ( ( #254 ) ) GLOBAL_UNIT_ASSIGNED_CONTEXT ( ( #187, #5, #127 ) ) REPRESENTATION_CONTEXT ( 'NONE', 'WORKASPACE' ) );
#131 = EDGE_LOOP ( 'NONE', ( #34 ) ) ;
#132 = DIRECTION ( 'NONE',  ( 0.0000000000000000000, 1.000000000000000000, 0.0000000000000000000 ) ) ;
#133 = CC_DESIGN_PERSON_AND_ORGANIZATION_ASSIGNMENT ( #165, #261, ( #36 ) ) ;
#134 = DIRECTION ( 'NONE',  ( 3.491481338843133355E-15, 6.018686094198702209E-16, 1.000000000000000000 ) ) ;
#135 = DIRECTION ( 'NONE',  ( -3.491481338843133355E-15, -5.321095007312576645E-16, -1.000000000000000000 ) ) ;
#136 = DIRECTION ( 'NONE',  ( -3.491481338843133355E-15, 1.049697256412017316E-16, -1.000000000000000000 ) ) ;
#137 = DIRECTION ( 'NONE',  ( 1.000000000000000000, 0.0000000000000000000, 0.0000000000000000000 ) ) ;
#138 = FACE_OUTER_BOUND ( 'NONE', #267, .T. ) ;
#139 = AXIS2_PLACEMENT_3D ( 'NONE', #158, #84, #70 ) ;
#140 = AXIS2_PLACEMENT_3D ( 'NONE', #303, #257, #137 ) ;
#141 = APPROVAL_STATUS ( 'not_yet_approved' ) ;
#142 = CARTESIAN_POINT ( 'NONE',  ( 3.851907753967411997E-14, 1.528999999999998582, 11.03230228131106649 ) ) ;
#143 = ADVANCED_FACE ( 'NONE', ( #17, #118 ), #295, .T. ) ;
#144 = DIRECTION ( 'NONE',  ( 1.857850392024322614E-30, -1.000000000000000000, 5.321095007312576645E-16 ) ) ;
#145 = CARTESIAN_POINT ( 'NONE',  ( 8.728703347107831416E-16, 1.528999999999998582, 0.2499999999999999445 ) ) ;
#146 = CARTESIAN_POINT ( 'NONE',  ( 3.929919511603369589E-14, -1.399999999999986811, 11.25573683548745052 ) ) ;
#147 = PRODUCT_DEFINITION ( 'UNKNOWN', '', #253, #95 ) ;
#148 = EDGE_LOOP ( 'NONE', ( #39 ) ) ;
#149 = CALENDAR_DATE ( 2021, 26, 11 ) ;
#150 = ORIENTED_EDGE ( 'NONE', *, *, #26, .F. ) ;
#151 = LOCAL_TIME ( 14, 11, 3.000000000000000000, #23 ) ;
#152 = ORIENTED_EDGE ( 'NONE', *, *, #208, .T. ) ;
#153 = EDGE_CURVE ( 'NONE', #103, #103, #79, .T. ) ;
#154 = DATE_TIME_ROLE ( 'classification_date' ) ;
#155 = ORIENTED_EDGE ( 'NONE', *, *, #86, .T. ) ;
#156 = AXIS2_PLACEMENT_3D ( 'NONE', #251, #15, #271 ) ;
#157 = CIRCLE ( 'NONE', #21, 1.528999999999999693 ) ;
#158 = CARTESIAN_POINT ( 'NONE',  ( 8.957261597119120321E-14, 1.544070856599329525E-14, 25.65461684548776233 ) ) ;
#159 = APPROVAL ( #24, 'UNSPECIFIED' ) ;
#160 = FACE_OUTER_BOUND ( 'NONE', #106, .T. ) ;
#161 = FACE_OUTER_BOUND ( 'NONE', #129, .T. ) ;
#162 = DIRECTION ( 'NONE',  ( -3.664998382197393967E-31, -1.000000000000000000, -1.049697256412017316E-16 ) ) ;
#163 = ORIENTED_EDGE ( 'NONE', *, *, #176, .T. ) ;
#164 = DIRECTION ( 'NONE',  ( 0.0000000000000000000, 1.000000000000000000, 0.0000000000000000000 ) ) ;
#165 = PERSON_AND_ORGANIZATION ( #81, #185 ) ;
#166 = VERTEX_POINT ( 'NONE', #172 ) ;
#167 = AXIS2_PLACEMENT_3D ( 'NONE', #41, #255, #293 ) ;
#168 = PERSON_AND_ORGANIZATION_ROLE ( 'creator' ) ;
#169 = DIRECTION ( 'NONE',  ( 2.163896063879671835E-30, -1.000000000000000000, 6.018686094198701223E-16 ) ) ;
#170 = PERSON_AND_ORGANIZATION ( #81, #185 ) ;
#171 = VERTEX_POINT ( 'NONE', #53 ) ;
#172 = CARTESIAN_POINT ( 'NONE',  ( 2.444036937190193601E-13, 1.199999999999990186, 70.00000000000000000 ) ) ;
#173 = CONICAL_SURFACE ( 'NONE', #28, 1.528999999999999693, 0.5235987755982899339 ) ;
#174 = ADVANCED_FACE ( 'NONE', ( #119, #47 ), #245, .T. ) ;
#175 = ORIENTED_EDGE ( 'NONE', *, *, #269, .T. ) ;
#176 = EDGE_CURVE ( 'NONE', #19, #19, #285, .T. ) ;
#177 = ORIENTED_EDGE ( 'NONE', *, *, #26, .T. ) ;
#178 = DIRECTION ( 'NONE',  ( 1.857850392024322614E-30, -1.000000000000000000, 5.321095007312577631E-16 ) ) ;
#179 = DIRECTION ( 'NONE',  ( 3.491481338843133355E-15, 5.321095007312576645E-16, 1.000000000000000000 ) ) ;
#180 = CARTESIAN_POINT ( 'NONE',  ( 2.444036937190193601E-13, -7.347880794884121511E-15, 70.00000000000000000 ) ) ;
#181 = CC_DESIGN_DATE_AND_TIME_ASSIGNMENT ( #202, #154, ( #298 ) ) ;
#182 = DIRECTION ( 'NONE',  ( 3.664998382197393967E-31, 1.000000000000000000, 1.049697256412017316E-16 ) ) ;
#183 = AXIS2_PLACEMENT_3D ( 'NONE', #275, #234, #18 ) ;
#184 = CARTESIAN_POINT ( 'NONE',  ( 8.728703347107860998E-16, 1.330273751828148105E-16, 0.2500000000000007772 ) ) ;
#185 = ORGANIZATION ( 'UNSPECIFIED', 'UNSPECIFIED', '' ) ;
#186 = DIRECTION ( 'NONE',  ( -3.491481338843133355E-15, 1.049697256412017316E-16, -1.000000000000000000 ) ) ;
#187 =( LENGTH_UNIT ( ) NAMED_UNIT ( * ) SI_UNIT ( .MILLI., .METRE. ) );
#188 = CALENDAR_DATE ( 2021, 26, 11 ) ;
#189 = CC_DESIGN_PERSON_AND_ORGANIZATION_ASSIGNMENT ( #280, #168, ( #147 ) ) ;
#190 = FACE_BOUND ( 'NONE', #224, .T. ) ;
#191 = AXIS2_PLACEMENT_3D ( 'NONE', #294, #135, #89 ) ;
#192 = CIRCLE ( 'NONE', #197, 1.399999999999980815 ) ;
#193 = FACE_OUTER_BOUND ( 'NONE', #114, .T. ) ;
#194 = PERSON_AND_ORGANIZATION ( #81, #185 ) ;
#195 = DIRECTION ( 'NONE',  ( 3.491481338843133355E-15, 5.321095007312576645E-16, 1.000000000000000000 ) ) ;
#196 = EDGE_LOOP ( 'NONE', ( #226 ) ) ;
#197 = AXIS2_PLACEMENT_3D ( 'NONE', #3, #77, #212 ) ;
#198 = COORDINATED_UNIVERSAL_TIME_OFFSET ( 1, 0, .AHEAD. ) ;
#199 = AXIS2_PLACEMENT_3D ( 'NONE', #180, #274, #162 ) ;
#200 = AXIS2_PLACEMENT_3D ( 'NONE', #125, #238, #122 ) ;
#201 = EDGE_LOOP ( 'NONE', ( #68 ) ) ;
#202 = DATE_AND_TIME ( #149, #75 ) ;
#203 = EDGE_LOOP ( 'NONE', ( #177 ) ) ;
#204 = ADVANCED_FACE ( 'NONE', ( #262, #49 ), #55, .F. ) ;
#205 = CARTESIAN_POINT ( 'NONE',  ( 2.383222060779547813E-30, 3.632083284492959293E-31, 6.825819271224300571E-16 ) ) ;
#206 = CONICAL_SURFACE ( 'NONE', #297, 1.384662432702592483, 0.5235987755982971503 ) ;
#207 = CARTESIAN_POINT ( 'NONE',  ( 3.851907753967411997E-14, 5.870392858824746938E-15, 11.03230228131106649 ) ) ;
#208 = EDGE_CURVE ( 'NONE', #166, #166, #20, .T. ) ;
#209 = CYLINDRICAL_SURFACE ( 'NONE', #191, 1.528999999999995696 ) ;
#210 = CARTESIAN_POINT ( 'NONE',  ( 1.019483501215131844E-13, 1.757406262999419099E-14, 29.19916798274875802 ) ) ;
#211 = AXIS2_PLACEMENT_3D ( 'NONE', #65, #134, #13 ) ;
#212 = DIRECTION ( 'NONE',  ( 0.0000000000000000000, -1.000000000000000000, 0.0000000000000000000 ) ) ;
#213 = CARTESIAN_POINT ( 'NONE',  ( 2.433562493173664138E-13, 1.499999999999990230, 69.70000000000001705 ) ) ;
#214 = APPROVAL ( #141, 'UNSPECIFIED' ) ;
#215 = APPLICATION_PROTOCOL_DEFINITION ( 'international standard', 'config_control_design', 1994, #10 ) ;
#216 = APPROVAL_ROLE ( '' ) ;
#217 = CARTESIAN_POINT ( 'NONE',  ( 8.728703347107833388E-14, 1.517883041479706208E-14, 25.00000000000000000 ) ) ;
#218 = DIRECTION ( 'NONE',  ( 0.0000000000000000000, 1.000000000000000000, 0.0000000000000000000 ) ) ;
#219 = DATE_TIME_ROLE ( 'creation_date' ) ;
#220 = PLANE ( 'NONE',  #91 ) ;
#221 = CC_DESIGN_APPROVAL ( #287, ( #298 ) ) ;
#222 = EDGE_LOOP ( 'NONE', ( #150 ) ) ;
#223 = ADVANCED_FACE ( 'NONE', ( #22, #101 ), #173, .T. ) ;
#224 = EDGE_LOOP ( 'NONE', ( #152 ) ) ;
#225 = PRODUCT_DEFINITION_SHAPE ( 'NONE', 'NONE',  #147 ) ;
#226 = ORIENTED_EDGE ( 'NONE', *, *, #86, .F. ) ;
#227 = CC_DESIGN_PERSON_AND_ORGANIZATION_ASSIGNMENT ( #252, #232, ( #298 ) ) ;
#228 = FACE_BOUND ( 'NONE', #201, .T. ) ;
#229 = DIRECTION ( 'NONE',  ( -3.491481338843133355E-15, -5.321095007312576645E-16, -1.000000000000000000 ) ) ;
#230 = ADVANCED_FACE ( 'NONE', ( #52 ), #220, .T. ) ;
#231 = APPROVAL_PERSON_ORGANIZATION ( #50, #214, #239 ) ;
#232 = PERSON_AND_ORGANIZATION_ROLE ( 'classification_officer' ) ;
#233 = FACE_OUTER_BOUND ( 'NONE', #82, .T. ) ;
#234 = DIRECTION ( 'NONE',  ( -3.491481338843133355E-15, -5.321095007312576645E-16, -1.000000000000000000 ) ) ;
#235 = DIRECTION ( 'NONE',  ( 0.0000000000000000000, -1.000000000000000000, 0.0000000000000000000 ) ) ;
#236 = LOCAL_TIME ( 14, 11, 3.000000000000000000, #240 ) ;
#237 = PRODUCT_RELATED_PRODUCT_CATEGORY ( 'detail', '', ( #36 ) ) ;
#238 = DIRECTION ( 'NONE',  ( -3.491481338843133355E-15, -5.321095007312576645E-16, -1.000000000000000000 ) ) ;
#239 = APPROVAL_ROLE ( '' ) ;
#240 = COORDINATED_UNIVERSAL_TIME_OFFSET ( 1, 0, .AHEAD. ) ;
#241 = CARTESIAN_POINT ( 'NONE',  ( 8.789332284292655368E-14, -1.415192246987760694, 25.17364817766693363 ) ) ;
#242 = DIRECTION ( 'NONE',  ( -3.491481338843133355E-15, 1.049697256412017316E-16, -1.000000000000000000 ) ) ;
#243 = EDGE_CURVE ( 'NONE', #124, #124, #248, .T. ) ;
#244 = VERTEX_POINT ( 'NONE', #302 ) ;
#245 = CONICAL_SURFACE ( 'NONE', #108, 2.124999999999982236, 0.1745329251994328645 ) ;
#246 = EDGE_LOOP ( 'NONE', ( #277 ) ) ;
#247 = ORIENTED_EDGE ( 'NONE', *, *, #153, .T. ) ;
#248 = CIRCLE ( 'NONE', #121, 1.499999999999997558 ) ;
#249 = FACE_OUTER_BOUND ( 'NONE', #246, .T. ) ;
#250 = PLANE ( 'NONE',  #167 ) ;
#251 = CARTESIAN_POINT ( 'NONE',  ( 8.789332284292655368E-14, 1.515122862271744924E-14, 25.17364817766693363 ) ) ;
#252 = PERSON_AND_ORGANIZATION ( #81, #185 ) ;
#253 = PRODUCT_DEFINITION_FORMATION_WITH_SPECIFIED_SOURCE ( 'ANY', '', #36, .NOT_KNOWN. ) ;
#254 = UNCERTAINTY_MEASURE_WITH_UNIT (LENGTH_MEASURE( 1.000000000000000082E-05 ), #187, 'distance_accuracy_value', 'NONE');
#255 = DIRECTION ( 'NONE',  ( -3.491481338843133355E-15, 1.049697256412017316E-16, -1.000000000000000000 ) ) ;
#256 = DIRECTION ( 'NONE',  ( 0.0000000000000000000, -1.000000000000000000, 0.0000000000000000000 ) ) ;
#257 = DIRECTION ( 'NONE',  ( 0.0000000000000000000, 0.0000000000000000000, 1.000000000000000000 ) ) ;
#258 = CALENDAR_DATE ( 2021, 26, 11 ) ;
#259 = ADVANCED_FACE ( 'NONE', ( #190, #138 ), #12, .T. ) ;
#260 = CARTESIAN_POINT ( 'NONE',  ( 3.851907753967411366E-14, 5.870392858824745361E-15, 11.03230228131106472 ) ) ;
#261 = PERSON_AND_ORGANIZATION_ROLE ( 'design_owner' ) ;
#262 = FACE_OUTER_BOUND ( 'NONE', #131, .T. ) ;
#263 = CARTESIAN_POINT ( 'NONE',  ( 3.851907753967411997E-14, -1.158057743660026607E-15, 11.03230228131106649 ) ) ;
#264 = DIRECTION ( 'NONE',  ( -1.889401515095393709E-30, 1.000000000000000000, -5.318192474585541051E-16 ) ) ;
#265 = ORIENTED_EDGE ( 'NONE', *, *, #273, .F. ) ;
#266 = ADVANCED_FACE ( 'NONE', ( #193 ), #93, .T. ) ;
#267 = EDGE_LOOP ( 'NONE', ( #83 ) ) ;
#268 = APPROVAL_PERSON_ORGANIZATION ( #301, #159, #216 ) ;
#269 = EDGE_CURVE ( 'NONE', #244, #244, #157, .T. ) ;
#270 = PERSON_AND_ORGANIZATION ( #81, #185 ) ;
#271 = DIRECTION ( 'NONE',  ( 0.0000000000000000000, -1.000000000000000000, 0.0000000000000000000 ) ) ;
#272 = EDGE_LOOP ( 'NONE', ( #37 ) ) ;
#273 = EDGE_CURVE ( 'NONE', #29, #29, #192, .T. ) ;
#274 = DIRECTION ( 'NONE',  ( 3.491481338843133355E-15, -1.049697256412017316E-16, 1.000000000000000000 ) ) ;
#275 = CARTESIAN_POINT ( 'NONE',  ( 2.383222060779547813E-30, 3.632083284492959293E-31, 6.825819271224300571E-16 ) ) ;
#276 = AXIS2_PLACEMENT_3D ( 'NONE', #184, #76, #264 ) ;
#277 = ORIENTED_EDGE ( 'NONE', *, *, #208, .F. ) ;
#278 = CARTESIAN_POINT ( 'NONE',  ( 2.433562493173664138E-13, -7.316389877191761450E-15, 69.70000000000001705 ) ) ;
#279 = CARTESIAN_POINT ( 'NONE',  ( 2.444036937190193601E-13, -7.347880794884121511E-15, 70.00000000000000000 ) ) ;
#280 = PERSON_AND_ORGANIZATION ( #81, #185 ) ;
#281 = DIRECTION ( 'NONE',  ( 0.0000000000000000000, 1.000000000000000000, 0.0000000000000000000 ) ) ;
#282 = PERSON_AND_ORGANIZATION_ROLE ( 'creator' ) ;
#283 = CARTESIAN_POINT ( 'NONE',  ( 3.851907753967411997E-14, -1.158057743660026607E-15, 11.03230228131106649 ) ) ;
#284 = DIRECTION ( 'NONE',  ( -3.491481338843133355E-15, 1.049697256412017316E-16, -1.000000000000000000 ) ) ;
#285 = CIRCLE ( 'NONE', #276, 1.528999999999998360 ) ;
#286 = AXIS2_PLACEMENT_3D ( 'NONE', #72, #242, #27 ) ;
#287 = APPROVAL ( #7, 'UNSPECIFIED' ) ;
#288 = ORIENTED_EDGE ( 'NONE', *, *, #35, .F. ) ;
#289 = AXIS2_PLACEMENT_3D ( 'NONE', #46, #66, #256 ) ;
#290 = APPROVAL_DATE_TIME ( #113, #287 ) ;
#291 = EDGE_LOOP ( 'NONE', ( #288 ) ) ;
#292 = APPROVAL_ROLE ( '' ) ;
#293 = DIRECTION ( 'NONE',  ( 3.664998382197393967E-31, 1.000000000000000000, 1.049697256412017316E-16 ) ) ;
#294 = CARTESIAN_POINT ( 'NONE',  ( 0.0000000000000000000, 0.0000000000000000000, 0.0000000000000000000 ) ) ;
#295 = CYLINDRICAL_SURFACE ( 'NONE', #38, 1.499999999999995337 ) ;
#296 = DIRECTION ( 'NONE',  ( 3.491481338843133355E-15, 6.018686094198702209E-16, 1.000000000000000000 ) ) ;
#297 = AXIS2_PLACEMENT_3D ( 'NONE', #205, #179, #178 ) ;
#298 = SECURITY_CLASSIFICATION ( '', '', #62 ) ;
#299 = VERTEX_POINT ( 'NONE', #142 ) ;
#300 = MECHANICAL_CONTEXT ( 'NONE', #117, 'mechanical' ) ;
#301 = PERSON_AND_ORGANIZATION ( #81, #185 ) ;
#302 = CARTESIAN_POINT ( 'NONE',  ( 3.851907753967411997E-14, 1.528999999999998582, 11.03230228131106649 ) ) ;
#303 = CARTESIAN_POINT ( 'NONE',  ( 0.0000000000000000000, 0.0000000000000000000, 0.0000000000000000000 ) ) ;
ENDSEC;
END-ISO-10303-21;
