ISO-10303-21;
HEADER;
FILE_DESCRIPTION (( 'STEP AP203' ),
    '1' );
FILE_NAME ('321208.step',
    '2021-11-26T13:11:02',
    ( '' ),
    ( '' ),
    'SwSTEP 2.0',
    'SolidWorks 2019',
    '' );
FILE_SCHEMA (( 'CONFIG_CONTROL_DESIGN' ));
ENDSEC;

DATA;
#1 = FACE_BOUND ( 'NONE', #58, .T. ) ;
#2 = DIRECTION ( 'NONE',  ( -1.855722369798640008E-30, 1.000000000000000000, -5.315000109419215718E-16 ) ) ;
#3 = DIRECTION ( 'NONE',  ( -3.491481338843133355E-15, 1.049697256412017316E-16, -1.000000000000000000 ) ) ;
#4 = CC_DESIGN_PERSON_AND_ORGANIZATION_ASSIGNMENT ( #196, #173, ( #56 ) ) ;
#5 = CARTESIAN_POINT ( 'NONE',  ( 0.0000000000000000000, 0.0000000000000000000, 0.0000000000000000000 ) ) ;
#6 = CIRCLE ( 'NONE', #229, 1.499999999999995337 ) ;
#7 = LOCAL_TIME ( 14, 11, 2.000000000000000000, #100 ) ;
#8 = CONICAL_SURFACE ( 'NONE', #89, 2.124999999999982236, 0.1745329251994328645 ) ;
#9 = PERSON_AND_ORGANIZATION ( #193, #73 ) ;
#10 =( NAMED_UNIT ( * ) PLANE_ANGLE_UNIT ( ) SI_UNIT ( $, .RADIAN. ) );
#11 = FACE_OUTER_BOUND ( 'NONE', #85, .T. ) ;
#12 = CYLINDRICAL_SURFACE ( 'NONE', #195, 1.523999999999995580 ) ;
#13 = EDGE_LOOP ( 'NONE', ( #293 ) ) ;
#14 = DIRECTION ( 'NONE',  ( 0.0000000000000000000, -1.000000000000000000, 0.0000000000000000000 ) ) ;
#15 = ADVANCED_FACE ( 'NONE', ( #167 ), #189, .T. ) ;
#16 = ORIENTED_EDGE ( 'NONE', *, *, #285, .T. ) ;
#17 = CARTESIAN_POINT ( 'NONE',  ( 1.019483501215131844E-13, 1.757406262999419099E-14, 29.19916798274875802 ) ) ;
#18 = CIRCLE ( 'NONE', #128, 1.199999999999997513 ) ;
#19 = CC_DESIGN_APPROVAL ( #253, ( #118 ) ) ;
#20 = CIRCLE ( 'NONE', #162, 1.415192246987776015 ) ;
#21 = EDGE_LOOP ( 'NONE', ( #176 ) ) ;
#22 = CARTESIAN_POINT ( 'NONE',  ( 2.370996856498695842E-30, 3.609312875748801639E-31, 6.790804894533108069E-16 ) ) ;
#23 = DIRECTION ( 'NONE',  ( -3.491481338843133355E-15, -5.315000109419215718E-16, -1.000000000000000000 ) ) ;
#24 = EDGE_CURVE ( 'NONE', #111, #111, #208, .T. ) ;
#25 = FACE_OUTER_BOUND ( 'NONE', #112, .T. ) ;
#26 = DIRECTION ( 'NONE',  ( 0.0000000000000000000, 1.000000000000000000, 0.0000000000000000000 ) ) ;
#27 = CARTESIAN_POINT ( 'NONE',  ( 3.854931465503689502E-14, 5.868271708347292906E-15, 11.04096253534891225 ) ) ;
#28 = APPROVAL_STATUS ( 'not_yet_approved' ) ;
#29 = APPLICATION_PROTOCOL_DEFINITION ( 'international standard', 'config_control_design', 1994, #288 ) ;
#30 = AXIS2_PLACEMENT_3D ( 'NONE', #261, #3, #280 ) ;
#31 = CARTESIAN_POINT ( 'NONE',  ( 2.433562493173664138E-13, 1.499999999999990230, 69.70000000000001705 ) ) ;
#32 =( GEOMETRIC_REPRESENTATION_CONTEXT ( 3 ) GLOBAL_UNCERTAINTY_ASSIGNED_CONTEXT ( ( #230 ) ) GLOBAL_UNIT_ASSIGNED_CONTEXT ( ( #79, #10, #214 ) ) REPRESENTATION_CONTEXT ( 'NONE', 'WORKASPACE' ) );
#33 = DATE_AND_TIME ( #53, #159 ) ;
#34 = DIRECTION ( 'NONE',  ( -3.491481338843133355E-15, 1.049697256412017316E-16, -1.000000000000000000 ) ) ;
#35 = FACE_BOUND ( 'NONE', #160, .T. ) ;
#36 = CC_DESIGN_DATE_AND_TIME_ASSIGNMENT ( #33, #239, ( #56 ) ) ;
#37 = ORIENTED_EDGE ( 'NONE', *, *, #125, .T. ) ;
#38 = ADVANCED_FACE ( 'NONE', ( #95, #1 ), #240, .T. ) ;
#39 = FACE_BOUND ( 'NONE', #40, .T. ) ;
#40 = EDGE_LOOP ( 'NONE', ( #200 ) ) ;
#41 = APPROVAL_ROLE ( '' ) ;
#42 = PLANE ( 'NONE',  #69 ) ;
#43 = CIRCLE ( 'NONE', #216, 1.523999999999998467 ) ;
#44 = CC_DESIGN_APPROVAL ( #93, ( #272 ) ) ;
#45 = MANIFOLD_SOLID_BREP ( 'Corps-Déplacer/Copier1[2]', #153 ) ;
#46 = EDGE_CURVE ( 'NONE', #209, #209, #87, .T. ) ;
#47 = DIRECTION ( 'NONE',  ( -3.491481338843133355E-15, 1.049697256412017316E-16, -1.000000000000000000 ) ) ;
#48 = DIRECTION ( 'NONE',  ( 3.491481338843133355E-15, 5.315000109419215718E-16, 1.000000000000000000 ) ) ;
#49 = CYLINDRICAL_SURFACE ( 'NONE', #94, 1.399999999999987255 ) ;
#50 = PERSON_AND_ORGANIZATION ( #193, #73 ) ;
#51 = DIRECTION ( 'NONE',  ( 3.491481338843133355E-15, 6.018686094198702209E-16, 1.000000000000000000 ) ) ;
#52 = TOROIDAL_SURFACE ( 'NONE', #181, 2.399999999999977263, 0.9999999999999965583 ) ;
#53 = CALENDAR_DATE ( 2021, 26, 11 ) ;
#54 = DIRECTION ( 'NONE',  ( -3.491481338843133355E-15, 1.049697256412017316E-16, -1.000000000000000000 ) ) ;
#55 = CALENDAR_DATE ( 2021, 26, 11 ) ;
#56 = PRODUCT_DEFINITION ( 'UNKNOWN', '', #118, #301 ) ;
#57 = CYLINDRICAL_SURFACE ( 'NONE', #119, 1.499999999999995337 ) ;
#58 = EDGE_LOOP ( 'NONE', ( #234 ) ) ;
#59 = DIRECTION ( 'NONE',  ( -3.491481338843133355E-15, 1.049697256412017316E-16, -1.000000000000000000 ) ) ;
#60 = EDGE_LOOP ( 'NONE', ( #291 ) ) ;
#61 = PERSON_AND_ORGANIZATION ( #193, #73 ) ;
#62 = CIRCLE ( 'NONE', #104, 1.499999999999997558 ) ;
#63 = CARTESIAN_POINT ( 'NONE',  ( -1.892735826383161356E-31, 1.379662432702592589, -5.421010862427522170E-17 ) ) ;
#64 = CARTESIAN_POINT ( 'NONE',  ( 2.444036937190193601E-13, 1.199999999999990186, 70.00000000000000000 ) ) ;
#65 = ORIENTED_EDGE ( 'NONE', *, *, #188, .T. ) ;
#66 = CC_DESIGN_PERSON_AND_ORGANIZATION_ASSIGNMENT ( #132, #207, ( #118 ) ) ;
#67 = PRODUCT_DEFINITION_SHAPE ( 'NONE', 'NONE',  #56 ) ;
#68 = AXIS2_PLACEMENT_3D ( 'NONE', #236, #47, #70 ) ;
#69 = AXIS2_PLACEMENT_3D ( 'NONE', #245, #244, #290 ) ;
#70 = DIRECTION ( 'NONE',  ( 3.664998382197393967E-31, 1.000000000000000000, 1.049697256412017316E-16 ) ) ;
#71 = ORIENTED_EDGE ( 'NONE', *, *, #177, .T. ) ;
#72 = FACE_OUTER_BOUND ( 'NONE', #257, .T. ) ;
#73 = ORGANIZATION ( 'UNSPECIFIED', 'UNSPECIFIED', '' ) ;
#74 = DIRECTION ( 'NONE',  ( 3.491481338843133355E-15, 5.315000109419214732E-16, 1.000000000000000000 ) ) ;
#75 = VERTEX_POINT ( 'NONE', #130 ) ;
#76 = CARTESIAN_POINT ( 'NONE',  ( 8.728703347107831416E-16, 1.523999999999998689, 0.2499999999999999445 ) ) ;
#77 = EDGE_CURVE ( 'NONE', #298, #298, #18, .T. ) ;
#78 = VERTEX_POINT ( 'NONE', #31 ) ;
#79 =( LENGTH_UNIT ( ) NAMED_UNIT ( * ) SI_UNIT ( .MILLI., .METRE. ) );
#80 = ADVANCED_FACE ( 'NONE', ( #282 ), #212, .T. ) ;
#81 = CARTESIAN_POINT ( 'NONE',  ( -1.374772010887664035E-30, 1.379662432702592589, -3.937503533509306251E-16 ) ) ;
#82 = ORIENTED_EDGE ( 'NONE', *, *, #46, .T. ) ;
#83 = CLOSED_SHELL ( 'NONE', ( #221, #263, #243, #300, #139, #168, #15, #295 ) ) ;
#84 = FACE_OUTER_BOUND ( 'NONE', #134, .T. ) ;
#85 = EDGE_LOOP ( 'NONE', ( #65 ) ) ;
#86 = DATE_AND_TIME ( #294, #141 ) ;
#87 = CIRCLE ( 'NONE', #113, 1.379662432702592589 ) ;
#88 = CARTESIAN_POINT ( 'NONE',  ( 3.854931465503689502E-14, 1.523999999999998689, 11.04096253534891225 ) ) ;
#89 = AXIS2_PLACEMENT_3D ( 'NONE', #17, #274, #14 ) ;
#90 = CARTESIAN_POINT ( 'NONE',  ( 8.728703347107833388E-14, 1.504671523549675690E-14, 25.00000000000000000 ) ) ;
#91 = ORIENTED_EDGE ( 'NONE', *, *, #188, .F. ) ;
#92 = EDGE_LOOP ( 'NONE', ( #71 ) ) ;
#93 = APPROVAL ( #180, 'UNSPECIFIED' ) ;
#94 = AXIS2_PLACEMENT_3D ( 'NONE', #5, #51, #143 ) ;
#95 = FACE_OUTER_BOUND ( 'NONE', #267, .T. ) ;
#96 = DIRECTION ( 'NONE',  ( 0.0000000000000000000, 1.000000000000000000, 0.0000000000000000000 ) ) ;
#97 = DIRECTION ( 'NONE',  ( 0.0000000000000000000, -1.000000000000000000, 0.0000000000000000000 ) ) ;
#98 = VERTEX_POINT ( 'NONE', #283 ) ;
#99 = DIRECTION ( 'NONE',  ( 0.0000000000000000000, -1.000000000000000000, 0.0000000000000000000 ) ) ;
#100 = COORDINATED_UNIVERSAL_TIME_OFFSET ( 1, 0, .AHEAD. ) ;
#101 = CC_DESIGN_PERSON_AND_ORGANIZATION_ASSIGNMENT ( #110, #204, ( #272 ) ) ;
#102 = CC_DESIGN_APPROVAL ( #238, ( #56 ) ) ;
#103 = CALENDAR_DATE ( 2021, 26, 11 ) ;
#104 = AXIS2_PLACEMENT_3D ( 'NONE', #106, #108, #220 ) ;
#105 = MECHANICAL_CONTEXT ( 'NONE', #233, 'mechanical' ) ;
#106 = CARTESIAN_POINT ( 'NONE',  ( 2.433562493173664138E-13, -7.316389877191761450E-15, 69.70000000000001705 ) ) ;
#107 = COORDINATED_UNIVERSAL_TIME_OFFSET ( 1, 0, .AHEAD. ) ;
#108 = DIRECTION ( 'NONE',  ( -3.491481338843133355E-15, 1.049697256412017316E-16, -1.000000000000000000 ) ) ;
#109 = ORIENTED_EDGE ( 'NONE', *, *, #285, .F. ) ;
#110 = PERSON_AND_ORGANIZATION ( #193, #73 ) ;
#111 = VERTEX_POINT ( 'NONE', #88 ) ;
#112 = EDGE_LOOP ( 'NONE', ( #278 ) ) ;
#113 = AXIS2_PLACEMENT_3D ( 'NONE', #22, #23, #2 ) ;
#114 = DIRECTION ( 'NONE',  ( 0.0000000000000000000, 1.000000000000000000, 0.0000000000000000000 ) ) ;
#115 = AXIS2_PLACEMENT_3D ( 'NONE', #269, #59, #135 ) ;
#116 = EDGE_CURVE ( 'NONE', #164, #164, #186, .T. ) ;
#117 = CC_DESIGN_PERSON_AND_ORGANIZATION_ASSIGNMENT ( #50, #192, ( #165 ) ) ;
#118 = PRODUCT_DEFINITION_FORMATION_WITH_SPECIFIED_SOURCE ( 'ANY', '', #165, .NOT_KNOWN. ) ;
#119 = AXIS2_PLACEMENT_3D ( 'NONE', #228, #34, #155 ) ;
#120 = DIRECTION ( 'NONE',  ( 1.855722369798640008E-30, -1.000000000000000000, 5.315000109419215718E-16 ) ) ;
#121 = CARTESIAN_POINT ( 'NONE',  ( 3.854931465503689502E-14, 5.868271708347292906E-15, 11.04096253534891225 ) ) ;
#122 = CARTESIAN_POINT ( 'NONE',  ( 8.728703347107833388E-14, 1.517883041479706208E-14, 25.00000000000000000 ) ) ;
#123 = DIRECTION ( 'NONE',  ( 3.491481338843133355E-15, 6.018686094198702209E-16, 1.000000000000000000 ) ) ;
#124 = APPROVAL_ROLE ( '' ) ;
#125 = EDGE_CURVE ( 'NONE', #98, #98, #166, .T. ) ;
#126 = PERSON_AND_ORGANIZATION ( #193, #73 ) ;
#127 = EDGE_LOOP ( 'NONE', ( #256 ) ) ;
#128 = AXIS2_PLACEMENT_3D ( 'NONE', #279, #144, #26 ) ;
#129 = VERTEX_POINT ( 'NONE', #218 ) ;
#130 = CARTESIAN_POINT ( 'NONE',  ( 8.957261597119120321E-14, -1.499999999999979794, 25.65461684548776233 ) ) ;
#131 = FACE_OUTER_BOUND ( 'NONE', #227, .T. ) ;
#132 = PERSON_AND_ORGANIZATION ( #193, #73 ) ;
#133 = DIRECTION ( 'NONE',  ( -1.855722369798640359E-30, 1.000000000000000000, -5.315000109419214732E-16 ) ) ;
#134 = EDGE_LOOP ( 'NONE', ( #179 ) ) ;
#135 = DIRECTION ( 'NONE',  ( 0.0000000000000000000, 1.000000000000000000, 0.0000000000000000000 ) ) ;
#136 = EDGE_LOOP ( 'NONE', ( #170 ) ) ;
#137 = FACE_OUTER_BOUND ( 'NONE', #157, .T. ) ;
#138 = AXIS2_PLACEMENT_3D ( 'NONE', #121, #211, #96 ) ;
#139 = ADVANCED_FACE ( 'NONE', ( #237, #72 ), #52, .F. ) ;
#140 = AXIS2_PLACEMENT_3D ( 'NONE', #187, #48, #120 ) ;
#141 = LOCAL_TIME ( 14, 11, 2.000000000000000000, #161 ) ;
#142 = EDGE_LOOP ( 'NONE', ( #37 ) ) ;
#143 = DIRECTION ( 'NONE',  ( 2.101413018224943268E-30, -1.000000000000000000, 6.018686094198702209E-16 ) ) ;
#144 = DIRECTION ( 'NONE',  ( -3.491481338843133355E-15, 1.049697256412017316E-16, -1.000000000000000000 ) ) ;
#145 = MANIFOLD_SOLID_BREP ( 'Corps-Déplacer/Copier1[1]', #83 ) ;
#146 = CC_DESIGN_DATE_AND_TIME_ASSIGNMENT ( #86, #271, ( #272 ) ) ;
#147 = DIRECTION ( 'NONE',  ( 3.491481338843133355E-15, 6.018686094198702209E-16, 1.000000000000000000 ) ) ;
#148 = APPROVAL_STATUS ( 'not_yet_approved' ) ;
#149 = EDGE_CURVE ( 'NONE', #75, #75, #6, .T. ) ;
#150 = CARTESIAN_POINT ( 'NONE',  ( 8.957261597119120321E-14, 1.544070856599329525E-14, 25.65461684548776233 ) ) ;
#151 = DIRECTION ( 'NONE',  ( 1.000000000000000000, 0.0000000000000000000, 0.0000000000000000000 ) ) ;
#152 = DATE_AND_TIME ( #103, #260 ) ;
#153 = CLOSED_SHELL ( 'NONE', ( #80, #254, #38, #276 ) ) ;
#154 = CALENDAR_DATE ( 2021, 26, 11 ) ;
#155 = DIRECTION ( 'NONE',  ( 3.664998382197393967E-31, 1.000000000000000000, 1.049697256412017316E-16 ) ) ;
#156 = DIRECTION ( 'NONE',  ( -3.491481338843133355E-15, -5.315000109419215718E-16, -1.000000000000000000 ) ) ;
#157 = EDGE_LOOP ( 'NONE', ( #82 ) ) ;
#158 = DIRECTION ( 'NONE',  ( 3.491481338843133355E-15, 6.018686094198702209E-16, 1.000000000000000000 ) ) ;
#159 = LOCAL_TIME ( 14, 11, 2.000000000000000000, #286 ) ;
#160 = EDGE_LOOP ( 'NONE', ( #246 ) ) ;
#161 = COORDINATED_UNIVERSAL_TIME_OFFSET ( 1, 0, .AHEAD. ) ;
#162 = AXIS2_PLACEMENT_3D ( 'NONE', #248, #223, #202 ) ;
#163 = DIRECTION ( 'NONE',  ( 0.0000000000000000000, -1.000000000000000000, 0.0000000000000000000 ) ) ;
#164 = VERTEX_POINT ( 'NONE', #252 ) ;
#165 = PRODUCT ( '321208', '321208', '', ( #105 ) ) ;
#166 = CIRCLE ( 'NONE', #30, 1.523999999999999799 ) ;
#167 = FACE_OUTER_BOUND ( 'NONE', #142, .T. ) ;
#168 = ADVANCED_FACE ( 'NONE', ( #25, #258 ), #49, .T. ) ;
#169 = EDGE_CURVE ( 'NONE', #219, #219, #43, .T. ) ;
#170 = ORIENTED_EDGE ( 'NONE', *, *, #149, .F. ) ;
#171 = CARTESIAN_POINT ( 'NONE',  ( 8.728703347107833388E-14, -1.399999999999965938, 25.00000000000000000 ) ) ;
#172 = DIRECTION ( 'NONE',  ( 1.855722369798640359E-30, -1.000000000000000000, 5.315000109419214732E-16 ) ) ;
#173 = PERSON_AND_ORGANIZATION_ROLE ( 'creator' ) ;
#174 = PERSON_AND_ORGANIZATION ( #193, #73 ) ;
#175 = DIRECTION ( 'NONE',  ( -1.855722369798640359E-30, 1.000000000000000000, -5.315000109419215718E-16 ) ) ;
#176 = ORIENTED_EDGE ( 'NONE', *, *, #125, .F. ) ;
#177 = EDGE_CURVE ( 'NONE', #242, #242, #277, .T. ) ;
#178 = PLANE ( 'NONE',  #299 ) ;
#179 = ORIENTED_EDGE ( 'NONE', *, *, #24, .T. ) ;
#180 = APPROVAL_STATUS ( 'not_yet_approved' ) ;
#181 = AXIS2_PLACEMENT_3D ( 'NONE', #122, #147, #213 ) ;
#182 = FACE_OUTER_BOUND ( 'NONE', #275, .T. ) ;
#183 = LOCAL_TIME ( 14, 11, 2.000000000000000000, #107 ) ;
#184 = AXIS2_PLACEMENT_3D ( 'NONE', #90, #158, #163 ) ;
#185 = FACE_OUTER_BOUND ( 'NONE', #136, .T. ) ;
#186 = CIRCLE ( 'NONE', #255, 1.399999999999993472 ) ;
#187 = CARTESIAN_POINT ( 'NONE',  ( 2.370996856498695842E-30, 3.609312875748801639E-31, 6.790804894533108069E-16 ) ) ;
#188 = EDGE_CURVE ( 'NONE', #78, #78, #62, .T. ) ;
#189 = PLANE ( 'NONE',  #68 ) ;
#190 = DIRECTION ( 'NONE',  ( 3.491481338843133355E-15, 6.018686094198702209E-16, 1.000000000000000000 ) ) ;
#191 = CARTESIAN_POINT ( 'NONE',  ( 3.929919511603369589E-14, 6.774474677170842422E-15, 11.25573683548745052 ) ) ;
#192 = PERSON_AND_ORGANIZATION_ROLE ( 'design_owner' ) ;
#193 = PERSON ( 'UNSPECIFIED', 'UNSPECIFIED', 'UNSPECIFIED', ('UNSPECIFIED'), ('UNSPECIFIED'), ('UNSPECIFIED') ) ;
#194 = APPROVAL_PERSON_ORGANIZATION ( #61, #93, #41 ) ;
#195 = AXIS2_PLACEMENT_3D ( 'NONE', #273, #205, #175 ) ;
#196 = PERSON_AND_ORGANIZATION ( #193, #73 ) ;
#197 = APPROVAL_DATE_TIME ( #152, #238 ) ;
#198 = APPROVAL_DATE_TIME ( #225, #253 ) ;
#199 = FACE_OUTER_BOUND ( 'NONE', #224, .T. ) ;
#200 = ORIENTED_EDGE ( 'NONE', *, *, #116, .F. ) ;
#201 = CC_DESIGN_PERSON_AND_ORGANIZATION_ASSIGNMENT ( #174, #268, ( #118 ) ) ;
#202 = DIRECTION ( 'NONE',  ( 0.0000000000000000000, -1.000000000000000000, 0.0000000000000000000 ) ) ;
#203 = ORIENTED_EDGE ( 'NONE', *, *, #169, .T. ) ;
#204 = PERSON_AND_ORGANIZATION_ROLE ( 'classification_officer' ) ;
#205 = DIRECTION ( 'NONE',  ( -3.491481338843133355E-15, -5.315000109419215718E-16, -1.000000000000000000 ) ) ;
#206 = ORIENTED_EDGE ( 'NONE', *, *, #169, .F. ) ;
#207 = PERSON_AND_ORGANIZATION_ROLE ( 'creator' ) ;
#208 = CIRCLE ( 'NONE', #138, 1.523999999999992916 ) ;
#209 = VERTEX_POINT ( 'NONE', #63 ) ;
#210 = CC_DESIGN_SECURITY_CLASSIFICATION ( #272, ( #118 ) ) ;
#211 = DIRECTION ( 'NONE',  ( -3.491481338843133355E-15, -5.315000109419215718E-16, -1.000000000000000000 ) ) ;
#212 = PLANE ( 'NONE',  #297 ) ;
#213 = DIRECTION ( 'NONE',  ( 2.163896063879671835E-30, -1.000000000000000000, 6.018686094198701223E-16 ) ) ;
#214 =( NAMED_UNIT ( * ) SI_UNIT ( $, .STERADIAN. ) SOLID_ANGLE_UNIT ( ) );
#215 = CARTESIAN_POINT ( 'NONE',  ( 0.0000000000000000000, 0.0000000000000000000, 0.0000000000000000000 ) ) ;
#216 = AXIS2_PLACEMENT_3D ( 'NONE', #235, #156, #251 ) ;
#217 = AXIS2_PLACEMENT_3D ( 'NONE', #265, #54, #114 ) ;
#218 = CARTESIAN_POINT ( 'NONE',  ( 8.789332284292655368E-14, -1.415192246987760694, 25.17364817766693363 ) ) ;
#219 = VERTEX_POINT ( 'NONE', #76 ) ;
#220 = DIRECTION ( 'NONE',  ( 0.0000000000000000000, 1.000000000000000000, 0.0000000000000000000 ) ) ;
#221 = ADVANCED_FACE ( 'NONE', ( #11, #296 ), #57, .T. ) ;
#222 = DATE_AND_TIME ( #55, #183 ) ;
#223 = DIRECTION ( 'NONE',  ( 3.491481338843133355E-15, 6.018686094198702209E-16, 1.000000000000000000 ) ) ;
#224 = EDGE_LOOP ( 'NONE', ( #270 ) ) ;
#225 = DATE_AND_TIME ( #154, #7 ) ;
#226 = FACE_BOUND ( 'NONE', #249, .T. ) ;
#227 = EDGE_LOOP ( 'NONE', ( #206 ) ) ;
#228 = CARTESIAN_POINT ( 'NONE',  ( 0.0000000000000000000, 0.0000000000000000000, 0.0000000000000000000 ) ) ;
#229 = AXIS2_PLACEMENT_3D ( 'NONE', #150, #123, #99 ) ;
#230 = UNCERTAINTY_MEASURE_WITH_UNIT (LENGTH_MEASURE( 1.000000000000000082E-05 ), #79, 'distance_accuracy_value', 'NONE');
#231 = AXIS2_PLACEMENT_3D ( 'NONE', #215, #262, #151 ) ;
#232 = CONICAL_SURFACE ( 'NONE', #217, 1.499999999999997558, 0.7853981633974573828 ) ;
#233 = APPLICATION_CONTEXT ( 'configuration controlled 3d designs of mechanical parts and assemblies' ) ;
#234 = ORIENTED_EDGE ( 'NONE', *, *, #46, .F. ) ;
#235 = CARTESIAN_POINT ( 'NONE',  ( 8.728703347107860998E-16, 1.328750027354808120E-16, 0.2500000000000007772 ) ) ;
#236 = CARTESIAN_POINT ( 'NONE',  ( 3.854931465503689502E-14, 1.523999999999998689, 11.04096253534891225 ) ) ;
#237 = FACE_OUTER_BOUND ( 'NONE', #92, .T. ) ;
#238 = APPROVAL ( #148, 'UNSPECIFIED' ) ;
#239 = DATE_TIME_ROLE ( 'creation_date' ) ;
#240 = CONICAL_SURFACE ( 'NONE', #140, 1.379662432702592589, 0.5235987755982971503 ) ;
#241 = CONICAL_SURFACE ( 'NONE', #115, 1.523999999999999799, 0.5235987755982961511 ) ;
#242 = VERTEX_POINT ( 'NONE', #171 ) ;
#243 = ADVANCED_FACE ( 'NONE', ( #35, #182 ), #232, .T. ) ;
#244 = DIRECTION ( 'NONE',  ( 3.491481338843133355E-15, -1.049697256412017316E-16, 1.000000000000000000 ) ) ;
#245 = CARTESIAN_POINT ( 'NONE',  ( 2.444036937190193601E-13, -7.347880794884121511E-15, 70.00000000000000000 ) ) ;
#246 = ORIENTED_EDGE ( 'NONE', *, *, #77, .T. ) ;
#247 = SHAPE_DEFINITION_REPRESENTATION ( #67, #303 ) ;
#248 = CARTESIAN_POINT ( 'NONE',  ( 8.789332284292655368E-14, 1.515122862271744924E-14, 25.17364817766693363 ) ) ;
#249 = EDGE_LOOP ( 'NONE', ( #16 ) ) ;
#250 = SECURITY_CLASSIFICATION_LEVEL ( 'unclassified' ) ;
#251 = DIRECTION ( 'NONE',  ( -1.895600338963816808E-30, 1.000000000000000000, -5.335640612625519553E-16 ) ) ;
#252 = CARTESIAN_POINT ( 'NONE',  ( 3.929919511603369589E-14, -1.399999999999986811, 11.25573683548745052 ) ) ;
#253 = APPROVAL ( #28, 'UNSPECIFIED' ) ;
#254 = ADVANCED_FACE ( 'NONE', ( #84, #131 ), #12, .T. ) ;
#255 = AXIS2_PLACEMENT_3D ( 'NONE', #191, #190, #97 ) ;
#256 = ORIENTED_EDGE ( 'NONE', *, *, #149, .T. ) ;
#257 = EDGE_LOOP ( 'NONE', ( #109 ) ) ;
#258 = FACE_OUTER_BOUND ( 'NONE', #60, .T. ) ;
#259 = APPLICATION_PROTOCOL_DEFINITION ( 'international standard', 'config_control_design', 1994, #233 ) ;
#260 = LOCAL_TIME ( 14, 11, 2.000000000000000000, #287 ) ;
#261 = CARTESIAN_POINT ( 'NONE',  ( 3.854931465503689502E-14, -1.158966808150362331E-15, 11.04096253534891225 ) ) ;
#262 = DIRECTION ( 'NONE',  ( 0.0000000000000000000, 0.0000000000000000000, 1.000000000000000000 ) ) ;
#263 = ADVANCED_FACE ( 'NONE', ( #199 ), #42, .T. ) ;
#264 = APPROVAL_ROLE ( '' ) ;
#265 = CARTESIAN_POINT ( 'NONE',  ( 2.433562493173664138E-13, -7.316389877191761450E-15, 69.70000000000001705 ) ) ;
#266 = DIRECTION ( 'NONE',  ( -3.491481338843133355E-15, -5.315000109419214732E-16, -1.000000000000000000 ) ) ;
#267 = EDGE_LOOP ( 'NONE', ( #203 ) ) ;
#268 = PERSON_AND_ORGANIZATION_ROLE ( 'design_supplier' ) ;
#269 = CARTESIAN_POINT ( 'NONE',  ( 3.854931465503689502E-14, -1.158966808150362331E-15, 11.04096253534891225 ) ) ;
#270 = ORIENTED_EDGE ( 'NONE', *, *, #77, .F. ) ;
#271 = DATE_TIME_ROLE ( 'classification_date' ) ;
#272 = SECURITY_CLASSIFICATION ( '', '', #250 ) ;
#273 = CARTESIAN_POINT ( 'NONE',  ( 0.0000000000000000000, 0.0000000000000000000, 0.0000000000000000000 ) ) ;
#274 = DIRECTION ( 'NONE',  ( 3.491481338843133355E-15, 6.018686094198702209E-16, 1.000000000000000000 ) ) ;
#275 = EDGE_LOOP ( 'NONE', ( #91 ) ) ;
#276 = ADVANCED_FACE ( 'NONE', ( #137 ), #178, .T. ) ;
#277 = CIRCLE ( 'NONE', #184, 1.399999999999980815 ) ;
#278 = ORIENTED_EDGE ( 'NONE', *, *, #116, .T. ) ;
#279 = CARTESIAN_POINT ( 'NONE',  ( 2.444036937190193601E-13, -7.347880794884121511E-15, 70.00000000000000000 ) ) ;
#280 = DIRECTION ( 'NONE',  ( 0.0000000000000000000, 1.000000000000000000, 0.0000000000000000000 ) ) ;
#281 = PRODUCT_RELATED_PRODUCT_CATEGORY ( 'detail', '', ( #165 ) ) ;
#282 = FACE_OUTER_BOUND ( 'NONE', #13, .T. ) ;
#283 = CARTESIAN_POINT ( 'NONE',  ( 3.854931465503689502E-14, 1.523999999999998689, 11.04096253534891225 ) ) ;
#284 = APPROVAL_PERSON_ORGANIZATION ( #9, #253, #124 ) ;
#285 = EDGE_CURVE ( 'NONE', #129, #129, #20, .T. ) ;
#286 = COORDINATED_UNIVERSAL_TIME_OFFSET ( 1, 0, .AHEAD. ) ;
#287 = COORDINATED_UNIVERSAL_TIME_OFFSET ( 1, 0, .AHEAD. ) ;
#288 = APPLICATION_CONTEXT ( 'configuration controlled 3d designs of mechanical parts and assemblies' ) ;
#289 = APPROVAL_DATE_TIME ( #222, #93 ) ;
#290 = DIRECTION ( 'NONE',  ( -3.664998382197393967E-31, -1.000000000000000000, -1.049697256412017316E-16 ) ) ;
#291 = ORIENTED_EDGE ( 'NONE', *, *, #177, .F. ) ;
#292 = FACE_OUTER_BOUND ( 'NONE', #21, .T. ) ;
#293 = ORIENTED_EDGE ( 'NONE', *, *, #24, .F. ) ;
#294 = CALENDAR_DATE ( 2021, 26, 11 ) ;
#295 = ADVANCED_FACE ( 'NONE', ( #292, #39 ), #241, .T. ) ;
#296 = FACE_OUTER_BOUND ( 'NONE', #127, .T. ) ;
#297 = AXIS2_PLACEMENT_3D ( 'NONE', #27, #74, #172 ) ;
#298 = VERTEX_POINT ( 'NONE', #64 ) ;
#299 = AXIS2_PLACEMENT_3D ( 'NONE', #81, #266, #133 ) ;
#300 = ADVANCED_FACE ( 'NONE', ( #185, #226 ), #8, .T. ) ;
#301 = DESIGN_CONTEXT ( 'detailed design', #288, 'design' ) ;
#302 = APPROVAL_PERSON_ORGANIZATION ( #126, #238, #264 ) ;
#303 = ADVANCED_BREP_SHAPE_REPRESENTATION ( '321208', ( #145, #45, #231 ), #32 ) ;
ENDSEC;
END-ISO-10303-21;
