ISO-10303-21;
HEADER;
FILE_DESCRIPTION (( 'STEP AP203' ),
    '1' );
FILE_NAME ('321207.step',
    '2021-11-26T13:11:02',
    ( '' ),
    ( '' ),
    'SwSTEP 2.0',
    'SolidWorks 2019',
    '' );
FILE_SCHEMA (( 'CONFIG_CONTROL_DESIGN' ));
ENDSEC;

DATA;
#1 = ORIENTED_EDGE ( 'NONE', *, *, #131, .T. ) ;
#2 = AXIS2_PLACEMENT_3D ( 'NONE', #167, #288, #31 ) ;
#3 = DIRECTION ( 'NONE',  ( 0.0000000000000000000, 1.000000000000000000, 0.0000000000000000000 ) ) ;
#4 = DIRECTION ( 'NONE',  ( 2.163896063879671835E-30, -1.000000000000000000, 6.018686094198701223E-16 ) ) ;
#5 = CC_DESIGN_PERSON_AND_ORGANIZATION_ASSIGNMENT ( #274, #183, ( #256 ) ) ;
#6 = PERSON_AND_ORGANIZATION ( #78, #299 ) ;
#7 = CARTESIAN_POINT ( 'NONE',  ( 3.857955177039966375E-14, -1.159875872640698055E-15, 11.04962278938675624 ) ) ;
#8 = APPROVAL_PERSON_ORGANIZATION ( #223, #224, #15 ) ;
#9 = FACE_OUTER_BOUND ( 'NONE', #73, .T. ) ;
#10 = DIRECTION ( 'NONE',  ( -3.491481338843133355E-15, 1.049697256412017316E-16, -1.000000000000000000 ) ) ;
#11 = CARTESIAN_POINT ( 'NONE',  ( -1.892735826383161356E-31, 1.374662432702592474, -5.421010862427522170E-17 ) ) ;
#12 = CARTESIAN_POINT ( 'NONE',  ( 0.0000000000000000000, 0.0000000000000000000, 0.0000000000000000000 ) ) ;
#13 = EDGE_CURVE ( 'NONE', #218, #218, #215, .T. ) ;
#14 = DIRECTION ( 'NONE',  ( 3.491481338843133355E-15, -1.049697256412017316E-16, 1.000000000000000000 ) ) ;
#15 = APPROVAL_ROLE ( '' ) ;
#16 = CC_DESIGN_APPROVAL ( #122, ( #297 ) ) ;
#17 = AXIS2_PLACEMENT_3D ( 'NONE', #231, #303, #287 ) ;
#18 = CALENDAR_DATE ( 2021, 26, 11 ) ;
#19 = CARTESIAN_POINT ( 'NONE',  ( 2.433562493173664138E-13, 1.499999999999990230, 69.70000000000001705 ) ) ;
#20 = APPROVAL_STATUS ( 'not_yet_approved' ) ;
#21 = AXIS2_PLACEMENT_3D ( 'NONE', #36, #227, #247 ) ;
#22 = EDGE_LOOP ( 'NONE', ( #139 ) ) ;
#23 = EDGE_LOOP ( 'NONE', ( #189 ) ) ;
#24 = ORIENTED_EDGE ( 'NONE', *, *, #71, .T. ) ;
#25 = ADVANCED_FACE ( 'NONE', ( #48, #212 ), #179, .F. ) ;
#26 = AXIS2_PLACEMENT_3D ( 'NONE', #265, #239, #240 ) ;
#27 = EDGE_LOOP ( 'NONE', ( #94 ) ) ;
#28 = ORIENTED_EDGE ( 'NONE', *, *, #13, .T. ) ;
#29 = PERSON_AND_ORGANIZATION ( #78, #299 ) ;
#30 = EDGE_LOOP ( 'NONE', ( #68 ) ) ;
#31 = DIRECTION ( 'NONE',  ( 0.0000000000000000000, -1.000000000000000000, 0.0000000000000000000 ) ) ;
#32 = CARTESIAN_POINT ( 'NONE',  ( 8.728703347107833388E-14, 1.504671523549675690E-14, 25.00000000000000000 ) ) ;
#33 = DIRECTION ( 'NONE',  ( 3.491481338843133355E-15, 6.018686094198702209E-16, 1.000000000000000000 ) ) ;
#34 = CARTESIAN_POINT ( 'NONE',  ( 8.957261597119120321E-14, 1.544070856599329525E-14, 25.65461684548776233 ) ) ;
#35 = CARTESIAN_POINT ( 'NONE',  ( 2.358797517926386379E-30, 3.586630932892904586E-31, 6.755864600175551580E-16 ) ) ;
#36 = CARTESIAN_POINT ( 'NONE',  ( 0.0000000000000000000, 0.0000000000000000000, 0.0000000000000000000 ) ) ;
#37 = PERSON_AND_ORGANIZATION_ROLE ( 'design_owner' ) ;
#38 = VERTEX_POINT ( 'NONE', #246 ) ;
#39 = CIRCLE ( 'NONE', #85, 1.518999999999992800 ) ;
#40 = ADVANCED_FACE ( 'NONE', ( #282, #259 ), #173, .T. ) ;
#41 = CARTESIAN_POINT ( 'NONE',  ( 3.857955177039966375E-14, 1.518999999999998574, 11.04962278938675624 ) ) ;
#42 = AXIS2_PLACEMENT_3D ( 'NONE', #7, #207, #3 ) ;
#43 = DIRECTION ( 'NONE',  ( 3.491481338843133355E-15, 6.018686094198702209E-16, 1.000000000000000000 ) ) ;
#44 = EDGE_LOOP ( 'NONE', ( #97 ) ) ;
#45 = DESIGN_CONTEXT ( 'detailed design', #249, 'design' ) ;
#46 = DIRECTION ( 'NONE',  ( -1.901839971415969037E-30, 1.000000000000000000, -5.353203616617045574E-16 ) ) ;
#47 = CIRCLE ( 'NONE', #300, 1.518999999999998352 ) ;
#48 = FACE_OUTER_BOUND ( 'NONE', #252, .T. ) ;
#49 = FACE_BOUND ( 'NONE', #119, .T. ) ;
#50 = APPROVAL ( #213, 'UNSPECIFIED' ) ;
#51 = DIRECTION ( 'NONE',  ( -3.664998382197393967E-31, -1.000000000000000000, -1.049697256412017316E-16 ) ) ;
#52 = AXIS2_PLACEMENT_3D ( 'NONE', #188, #70, #280 ) ;
#53 = CARTESIAN_POINT ( 'NONE',  ( 3.857955177039967006E-14, 1.518999999999998574, 11.04962278938675801 ) ) ;
#54 = DIRECTION ( 'NONE',  ( 3.491481338843133355E-15, 6.018686094198702209E-16, 1.000000000000000000 ) ) ;
#55 = PRODUCT ( '321207', '321207', '', ( #87 ) ) ;
#56 = CC_DESIGN_PERSON_AND_ORGANIZATION_ASSIGNMENT ( #206, #185, ( #203 ) ) ;
#57 = DIRECTION ( 'NONE',  ( 1.853597683291005035E-30, -1.000000000000000000, 5.308914765402056222E-16 ) ) ;
#58 = PERSON_AND_ORGANIZATION_ROLE ( 'creator' ) ;
#59 = AXIS2_PLACEMENT_3D ( 'NONE', #241, #33, #123 ) ;
#60 = COORDINATED_UNIVERSAL_TIME_OFFSET ( 1, 0, .AHEAD. ) ;
#61 = PERSON_AND_ORGANIZATION ( #78, #299 ) ;
#62 = DATE_AND_TIME ( #152, #190 ) ;
#63 = APPLICATION_PROTOCOL_DEFINITION ( 'international standard', 'config_control_design', 1994, #249 ) ;
#64 = EDGE_LOOP ( 'NONE', ( #66 ) ) ;
#65 = PERSON_AND_ORGANIZATION_ROLE ( 'design_supplier' ) ;
#66 = ORIENTED_EDGE ( 'NONE', *, *, #253, .F. ) ;
#67 = CC_DESIGN_PERSON_AND_ORGANIZATION_ASSIGNMENT ( #6, #65, ( #203 ) ) ;
#68 = ORIENTED_EDGE ( 'NONE', *, *, #286, .T. ) ;
#69 = EDGE_CURVE ( 'NONE', #104, #104, #221, .T. ) ;
#70 = DIRECTION ( 'NONE',  ( -3.491481338843133355E-15, -5.308914765402056222E-16, -1.000000000000000000 ) ) ;
#71 = EDGE_CURVE ( 'NONE', #298, #298, #118, .T. ) ;
#72 = COORDINATED_UNIVERSAL_TIME_OFFSET ( 1, 0, .AHEAD. ) ;
#73 = EDGE_LOOP ( 'NONE', ( #1 ) ) ;
#74 = AXIS2_PLACEMENT_3D ( 'NONE', #138, #143, #278 ) ;
#75 = AXIS2_PLACEMENT_3D ( 'NONE', #195, #121, #262 ) ;
#76 = EDGE_LOOP ( 'NONE', ( #141 ) ) ;
#77 = DIRECTION ( 'NONE',  ( 0.0000000000000000000, 1.000000000000000000, 0.0000000000000000000 ) ) ;
#78 = PERSON ( 'UNSPECIFIED', 'UNSPECIFIED', 'UNSPECIFIED', ('UNSPECIFIED'), ('UNSPECIFIED'), ('UNSPECIFIED') ) ;
#79 = FACE_OUTER_BOUND ( 'NONE', #260, .T. ) ;
#80 = EDGE_CURVE ( 'NONE', #38, #38, #47, .T. ) ;
#81 = FACE_OUTER_BOUND ( 'NONE', #238, .T. ) ;
#82 = DIRECTION ( 'NONE',  ( -3.491481338843133355E-15, -5.308914765402056222E-16, -1.000000000000000000 ) ) ;
#83 = ADVANCED_FACE ( 'NONE', ( #284, #49 ), #147, .T. ) ;
#84 = DIRECTION ( 'NONE',  ( -3.491481338843133355E-15, 1.049697256412017316E-16, -1.000000000000000000 ) ) ;
#85 = AXIS2_PLACEMENT_3D ( 'NONE', #171, #82, #77 ) ;
#86 = CARTESIAN_POINT ( 'NONE',  ( 2.444036937190193601E-13, 1.199999999999990186, 70.00000000000000000 ) ) ;
#87 = MECHANICAL_CONTEXT ( 'NONE', #251, 'mechanical' ) ;
#88 = VERTEX_POINT ( 'NONE', #128 ) ;
#89 = LOCAL_TIME ( 14, 11, 2.000000000000000000, #162 ) ;
#90 = CARTESIAN_POINT ( 'NONE',  ( 8.789332284292655368E-14, -1.415192246987760694, 25.17364817766693363 ) ) ;
#91 = DATE_AND_TIME ( #18, #133 ) ;
#92 = DATE_TIME_ROLE ( 'classification_date' ) ;
#93 = EDGE_LOOP ( 'NONE', ( #24 ) ) ;
#94 = ORIENTED_EDGE ( 'NONE', *, *, #80, .F. ) ;
#95 = AXIS2_PLACEMENT_3D ( 'NONE', #35, #170, #57 ) ;
#96 = FACE_OUTER_BOUND ( 'NONE', #76, .T. ) ;
#97 = ORIENTED_EDGE ( 'NONE', *, *, #69, .T. ) ;
#98 = DATE_AND_TIME ( #135, #89 ) ;
#99 = ORIENTED_EDGE ( 'NONE', *, *, #131, .F. ) ;
#100 = AXIS2_PLACEMENT_3D ( 'NONE', #12, #261, #144 ) ;
#101 = PLANE ( 'NONE',  #126 ) ;
#102 = DIRECTION ( 'NONE',  ( -3.491481338843133355E-15, 1.049697256412017316E-16, -1.000000000000000000 ) ) ;
#103 = ADVANCED_FACE ( 'NONE', ( #114, #96 ), #187, .T. ) ;
#104 = VERTEX_POINT ( 'NONE', #86 ) ;
#105 = AXIS2_PLACEMENT_3D ( 'NONE', #161, #163, #117 ) ;
#106 = DIRECTION ( 'NONE',  ( 3.491481338843133355E-15, 6.018686094198702209E-16, 1.000000000000000000 ) ) ;
#107 = FACE_OUTER_BOUND ( 'NONE', #93, .T. ) ;
#108 = CC_DESIGN_PERSON_AND_ORGANIZATION_ASSIGNMENT ( #61, #58, ( #297 ) ) ;
#109 = APPROVAL_STATUS ( 'not_yet_approved' ) ;
#110 = AXIS2_PLACEMENT_3D ( 'NONE', #32, #106, #197 ) ;
#111 = CARTESIAN_POINT ( 'NONE',  ( 8.957261597119120321E-14, -1.499999999999979794, 25.65461684548776233 ) ) ;
#112 = APPROVAL_ROLE ( '' ) ;
#113 = ORIENTED_EDGE ( 'NONE', *, *, #69, .F. ) ;
#114 = FACE_OUTER_BOUND ( 'NONE', #30, .T. ) ;
#115 = EDGE_CURVE ( 'NONE', #293, #293, #142, .T. ) ;
#116 = EDGE_LOOP ( 'NONE', ( #210 ) ) ;
#117 = DIRECTION ( 'NONE',  ( 0.0000000000000000000, 1.000000000000000000, 0.0000000000000000000 ) ) ;
#118 = CIRCLE ( 'NONE', #42, 1.518999999999999684 ) ;
#119 = EDGE_LOOP ( 'NONE', ( #184 ) ) ;
#120 = FACE_BOUND ( 'NONE', #160, .T. ) ;
#121 = DIRECTION ( 'NONE',  ( 3.491481338843133355E-15, 5.308914765402057208E-16, 1.000000000000000000 ) ) ;
#122 = APPROVAL ( #20, 'UNSPECIFIED' ) ;
#123 = DIRECTION ( 'NONE',  ( 0.0000000000000000000, -1.000000000000000000, 0.0000000000000000000 ) ) ;
#124 = FACE_OUTER_BOUND ( 'NONE', #27, .T. ) ;
#125 = CC_DESIGN_APPROVAL ( #50, ( #256 ) ) ;
#126 = AXIS2_PLACEMENT_3D ( 'NONE', #193, #263, #244 ) ;
#127 = PLANE ( 'NONE',  #283 ) ;
#128 = CARTESIAN_POINT ( 'NONE',  ( 3.857955177039966375E-14, 1.518999999999998574, 11.04962278938675624 ) ) ;
#129 = CLOSED_SHELL ( 'NONE', ( #175, #273, #276, #83, #25, #103, #267, #40 ) ) ;
#130 = DATE_TIME_ROLE ( 'creation_date' ) ;
#131 = EDGE_CURVE ( 'NONE', #226, #226, #155, .T. ) ;
#132 = VERTEX_POINT ( 'NONE', #156 ) ;
#133 = LOCAL_TIME ( 14, 11, 2.000000000000000000, #301 ) ;
#134 = UNCERTAINTY_MEASURE_WITH_UNIT (LENGTH_MEASURE( 1.000000000000000082E-05 ), #182, 'distance_accuracy_value', 'NONE');
#135 = CALENDAR_DATE ( 2021, 26, 11 ) ;
#136 = AXIS2_PLACEMENT_3D ( 'NONE', #186, #165, #255 ) ;
#137 = AXIS2_PLACEMENT_3D ( 'NONE', #292, #84, #172 ) ;
#138 = CARTESIAN_POINT ( 'NONE',  ( 2.444036937190193601E-13, -7.347880794884121511E-15, 70.00000000000000000 ) ) ;
#139 = ORIENTED_EDGE ( 'NONE', *, *, #115, .F. ) ;
#140 = CALENDAR_DATE ( 2021, 26, 11 ) ;
#141 = ORIENTED_EDGE ( 'NONE', *, *, #201, .F. ) ;
#142 = CIRCLE ( 'NONE', #2, 1.415192246987776015 ) ;
#143 = DIRECTION ( 'NONE',  ( -3.491481338843133355E-15, 1.049697256412017316E-16, -1.000000000000000000 ) ) ;
#144 = DIRECTION ( 'NONE',  ( -1.853597683291005035E-30, 1.000000000000000000, -5.308914765402056222E-16 ) ) ;
#145 = PLANE ( 'NONE',  #75 ) ;
#146 = APPROVAL_PERSON_ORGANIZATION ( #268, #122, #112 ) ;
#147 = CONICAL_SURFACE ( 'NONE', #136, 2.124999999999982236, 0.1745329251994328645 ) ;
#148 = FACE_OUTER_BOUND ( 'NONE', #254, .T. ) ;
#149 = DIRECTION ( 'NONE',  ( 3.664998382197393967E-31, 1.000000000000000000, 1.049697256412017316E-16 ) ) ;
#150 = FACE_OUTER_BOUND ( 'NONE', #236, .T. ) ;
#151 = CIRCLE ( 'NONE', #59, 1.399999999999993472 ) ;
#152 = CALENDAR_DATE ( 2021, 26, 11 ) ;
#153 = VERTEX_POINT ( 'NONE', #174 ) ;
#154 = EDGE_CURVE ( 'NONE', #88, #88, #39, .T. ) ;
#155 = CIRCLE ( 'NONE', #26, 1.499999999999997558 ) ;
#156 = CARTESIAN_POINT ( 'NONE',  ( 3.929919511603369589E-14, -1.399999999999986811, 11.25573683548745052 ) ) ;
#157 = CC_DESIGN_DATE_AND_TIME_ASSIGNMENT ( #232, #92, ( #256 ) ) ;
#158 = ORIENTED_EDGE ( 'NONE', *, *, #154, .F. ) ;
#159 = ORIENTED_EDGE ( 'NONE', *, *, #253, .T. ) ;
#160 = EDGE_LOOP ( 'NONE', ( #166 ) ) ;
#161 = CARTESIAN_POINT ( 'NONE',  ( 3.857955177039966375E-14, -1.159875872640698055E-15, 11.04962278938675624 ) ) ;
#162 = COORDINATED_UNIVERSAL_TIME_OFFSET ( 1, 0, .AHEAD. ) ;
#163 = DIRECTION ( 'NONE',  ( -3.491481338843133355E-15, 1.049697256412017316E-16, -1.000000000000000000 ) ) ;
#164 = CIRCLE ( 'NONE', #229, 1.499999999999995337 ) ;
#165 = DIRECTION ( 'NONE',  ( 3.491481338843133355E-15, 6.018686094198702209E-16, 1.000000000000000000 ) ) ;
#166 = ORIENTED_EDGE ( 'NONE', *, *, #13, .F. ) ;
#167 = CARTESIAN_POINT ( 'NONE',  ( 8.789332284292655368E-14, 1.515122862271744924E-14, 25.17364817766693363 ) ) ;
#168 = FACE_OUTER_BOUND ( 'NONE', #275, .T. ) ;
#169 = CONICAL_SURFACE ( 'NONE', #95, 1.374662432702592474, 0.5235987755982970393 ) ;
#170 = DIRECTION ( 'NONE',  ( 3.491481338843133355E-15, 5.308914765402056222E-16, 1.000000000000000000 ) ) ;
#171 = CARTESIAN_POINT ( 'NONE',  ( 3.857955177039966375E-14, 5.866150557869840451E-15, 11.04962278938675624 ) ) ;
#172 = DIRECTION ( 'NONE',  ( 0.0000000000000000000, 1.000000000000000000, 0.0000000000000000000 ) ) ;
#173 = CONICAL_SURFACE ( 'NONE', #105, 1.518999999999999684, 0.5235987755982829395 ) ;
#174 = CARTESIAN_POINT ( 'NONE',  ( 8.728703347107833388E-14, -1.399999999999965938, 25.00000000000000000 ) ) ;
#175 = ADVANCED_FACE ( 'NONE', ( #9, #150 ), #264, .T. ) ;
#176 = PRODUCT_RELATED_PRODUCT_CATEGORY ( 'detail', '', ( #55 ) ) ;
#177 =( NAMED_UNIT ( * ) PLANE_ANGLE_UNIT ( ) SI_UNIT ( $, .RADIAN. ) );
#178 = CC_DESIGN_APPROVAL ( #224, ( #203 ) ) ;
#179 = TOROIDAL_SURFACE ( 'NONE', #235, 2.399999999999977263, 0.9999999999999965583 ) ;
#180 =( NAMED_UNIT ( * ) SI_UNIT ( $, .STERADIAN. ) SOLID_ANGLE_UNIT ( ) );
#181 = CC_DESIGN_PERSON_AND_ORGANIZATION_ASSIGNMENT ( #205, #37, ( #55 ) ) ;
#182 =( LENGTH_UNIT ( ) NAMED_UNIT ( * ) SI_UNIT ( .MILLI., .METRE. ) );
#183 = PERSON_AND_ORGANIZATION_ROLE ( 'classification_officer' ) ;
#184 = ORIENTED_EDGE ( 'NONE', *, *, #115, .T. ) ;
#185 = PERSON_AND_ORGANIZATION_ROLE ( 'creator' ) ;
#186 = CARTESIAN_POINT ( 'NONE',  ( 1.019483501215131844E-13, 1.757406262999419099E-14, 29.19916798274875802 ) ) ;
#187 = CYLINDRICAL_SURFACE ( 'NONE', #17, 1.399999999999987255 ) ;
#188 = CARTESIAN_POINT ( 'NONE',  ( 2.358797517926386379E-30, 3.586630932892904586E-31, 6.755864600175551580E-16 ) ) ;
#189 = ORIENTED_EDGE ( 'NONE', *, *, #154, .T. ) ;
#190 = LOCAL_TIME ( 14, 11, 2.000000000000000000, #60 ) ;
#191 = CARTESIAN_POINT ( 'NONE',  ( 8.728703347107860998E-16, 1.327228691350518000E-16, 0.2500000000000007772 ) ) ;
#192 = CONICAL_SURFACE ( 'NONE', #137, 1.499999999999997558, 0.7853981633974573828 ) ;
#193 = CARTESIAN_POINT ( 'NONE',  ( -1.368672341601509303E-30, 1.374662432702592474, -3.920033386330528007E-16 ) ) ;
#194 = CARTESIAN_POINT ( 'NONE',  ( 2.444036937190193601E-13, -7.347880794884121511E-15, 70.00000000000000000 ) ) ;
#195 = CARTESIAN_POINT ( 'NONE',  ( 3.857955177039967006E-14, 5.866150557869840451E-15, 11.04962278938675801 ) ) ;
#196 = ADVANCED_FACE ( 'NONE', ( #81, #120 ), #169, .T. ) ;
#197 = DIRECTION ( 'NONE',  ( 0.0000000000000000000, -1.000000000000000000, 0.0000000000000000000 ) ) ;
#198 = CC_DESIGN_DATE_AND_TIME_ASSIGNMENT ( #62, #130, ( #297 ) ) ;
#199 = FACE_BOUND ( 'NONE', #44, .T. ) ;
#200 = COORDINATED_UNIVERSAL_TIME_OFFSET ( 1, 0, .AHEAD. ) ;
#201 = EDGE_CURVE ( 'NONE', #153, #153, #258, .T. ) ;
#202 = DATE_AND_TIME ( #225, #270 ) ;
#203 = PRODUCT_DEFINITION_FORMATION_WITH_SPECIFIED_SOURCE ( 'ANY', '', #55, .NOT_KNOWN. ) ;
#204 = CLOSED_SHELL ( 'NONE', ( #285, #228, #196, #209 ) ) ;
#205 = PERSON_AND_ORGANIZATION ( #78, #299 ) ;
#206 = PERSON_AND_ORGANIZATION ( #78, #299 ) ;
#207 = DIRECTION ( 'NONE',  ( -3.491481338843133355E-15, 1.049697256412017316E-16, -1.000000000000000000 ) ) ;
#208 = EDGE_LOOP ( 'NONE', ( #113 ) ) ;
#209 = ADVANCED_FACE ( 'NONE', ( #148 ), #101, .T. ) ;
#210 = ORIENTED_EDGE ( 'NONE', *, *, #286, .F. ) ;
#211 = CARTESIAN_POINT ( 'NONE',  ( 8.728703347107833388E-14, 1.517883041479706208E-14, 25.00000000000000000 ) ) ;
#212 = FACE_OUTER_BOUND ( 'NONE', #22, .T. ) ;
#213 = APPROVAL_STATUS ( 'not_yet_approved' ) ;
#214 = PLANE ( 'NONE',  #245 ) ;
#215 = CIRCLE ( 'NONE', #52, 1.374662432702592474 ) ;
#216 = PRODUCT_DEFINITION_SHAPE ( 'NONE', 'NONE',  #297 ) ;
#217 = FACE_OUTER_BOUND ( 'NONE', #208, .T. ) ;
#218 = VERTEX_POINT ( 'NONE', #11 ) ;
#219 = CYLINDRICAL_SURFACE ( 'NONE', #100, 1.518999999999995687 ) ;
#220 = LOCAL_TIME ( 14, 11, 2.000000000000000000, #72 ) ;
#221 = CIRCLE ( 'NONE', #74, 1.199999999999997513 ) ;
#222 = FACE_OUTER_BOUND ( 'NONE', #23, .T. ) ;
#223 = PERSON_AND_ORGANIZATION ( #78, #299 ) ;
#224 = APPROVAL ( #109, 'UNSPECIFIED' ) ;
#225 = CALENDAR_DATE ( 2021, 26, 11 ) ;
#226 = VERTEX_POINT ( 'NONE', #19 ) ;
#227 = DIRECTION ( 'NONE',  ( 0.0000000000000000000, 0.0000000000000000000, 1.000000000000000000 ) ) ;
#228 = ADVANCED_FACE ( 'NONE', ( #222, #124 ), #219, .T. ) ;
#229 = AXIS2_PLACEMENT_3D ( 'NONE', #34, #54, #291 ) ;
#230 = SHAPE_DEFINITION_REPRESENTATION ( #216, #266 ) ;
#231 = CARTESIAN_POINT ( 'NONE',  ( 0.0000000000000000000, 0.0000000000000000000, 0.0000000000000000000 ) ) ;
#232 = DATE_AND_TIME ( #140, #220 ) ;
#233 = DIRECTION ( 'NONE',  ( -3.491481338843133355E-15, -5.308914765402056222E-16, -1.000000000000000000 ) ) ;
#234 = ORIENTED_EDGE ( 'NONE', *, *, #80, .T. ) ;
#235 = AXIS2_PLACEMENT_3D ( 'NONE', #211, #43, #4 ) ;
#236 = EDGE_LOOP ( 'NONE', ( #159 ) ) ;
#237 = MANIFOLD_SOLID_BREP ( 'Corps-Déplacer/Copier1[2]', #204 ) ;
#238 = EDGE_LOOP ( 'NONE', ( #234 ) ) ;
#239 = DIRECTION ( 'NONE',  ( -3.491481338843133355E-15, 1.049697256412017316E-16, -1.000000000000000000 ) ) ;
#240 = DIRECTION ( 'NONE',  ( 0.0000000000000000000, 1.000000000000000000, 0.0000000000000000000 ) ) ;
#241 = CARTESIAN_POINT ( 'NONE',  ( 3.929919511603369589E-14, 6.774474677170842422E-15, 11.25573683548745052 ) ) ;
#242 = DIRECTION ( 'NONE',  ( 3.664998382197393967E-31, 1.000000000000000000, 1.049697256412017316E-16 ) ) ;
#243 =( GEOMETRIC_REPRESENTATION_CONTEXT ( 3 ) GLOBAL_UNCERTAINTY_ASSIGNED_CONTEXT ( ( #134 ) ) GLOBAL_UNIT_ASSIGNED_CONTEXT ( ( #182, #177, #180 ) ) REPRESENTATION_CONTEXT ( 'NONE', 'WORKASPACE' ) );
#244 = DIRECTION ( 'NONE',  ( -1.853597683291005035E-30, 1.000000000000000000, -5.308914765402057208E-16 ) ) ;
#245 = AXIS2_PLACEMENT_3D ( 'NONE', #53, #102, #242 ) ;
#246 = CARTESIAN_POINT ( 'NONE',  ( 8.728703347107831416E-16, 1.518999999999998574, 0.2499999999999999445 ) ) ;
#247 = DIRECTION ( 'NONE',  ( 1.000000000000000000, 0.0000000000000000000, 0.0000000000000000000 ) ) ;
#248 = APPROVAL_PERSON_ORGANIZATION ( #29, #50, #277 ) ;
#249 = APPLICATION_CONTEXT ( 'configuration controlled 3d designs of mechanical parts and assemblies' ) ;
#250 = ORIENTED_EDGE ( 'NONE', *, *, #71, .F. ) ;
#251 = APPLICATION_CONTEXT ( 'configuration controlled 3d designs of mechanical parts and assemblies' ) ;
#252 = EDGE_LOOP ( 'NONE', ( #279 ) ) ;
#253 = EDGE_CURVE ( 'NONE', #272, #272, #164, .T. ) ;
#254 = EDGE_LOOP ( 'NONE', ( #28 ) ) ;
#255 = DIRECTION ( 'NONE',  ( 0.0000000000000000000, -1.000000000000000000, 0.0000000000000000000 ) ) ;
#256 = SECURITY_CLASSIFICATION ( '', '', #302 ) ;
#257 = APPROVAL_DATE_TIME ( #98, #50 ) ;
#258 = CIRCLE ( 'NONE', #110, 1.399999999999980815 ) ;
#259 = FACE_BOUND ( 'NONE', #116, .T. ) ;
#260 = EDGE_LOOP ( 'NONE', ( #99 ) ) ;
#261 = DIRECTION ( 'NONE',  ( -3.491481338843133355E-15, -5.308914765402056222E-16, -1.000000000000000000 ) ) ;
#262 = DIRECTION ( 'NONE',  ( 1.853597683291005035E-30, -1.000000000000000000, 5.308914765402057208E-16 ) ) ;
#263 = DIRECTION ( 'NONE',  ( -3.491481338843133355E-15, -5.308914765402057208E-16, -1.000000000000000000 ) ) ;
#264 = CYLINDRICAL_SURFACE ( 'NONE', #271, 1.499999999999995337 ) ;
#265 = CARTESIAN_POINT ( 'NONE',  ( 2.433562493173664138E-13, -7.316389877191761450E-15, 69.70000000000001705 ) ) ;
#266 = ADVANCED_BREP_SHAPE_REPRESENTATION ( '321207', ( #281, #237, #21 ), #243 ) ;
#267 = ADVANCED_FACE ( 'NONE', ( #107 ), #214, .T. ) ;
#268 = PERSON_AND_ORGANIZATION ( #78, #299 ) ;
#269 = APPROVAL_DATE_TIME ( #91, #122 ) ;
#270 = LOCAL_TIME ( 14, 11, 2.000000000000000000, #200 ) ;
#271 = AXIS2_PLACEMENT_3D ( 'NONE', #290, #10, #149 ) ;
#272 = VERTEX_POINT ( 'NONE', #111 ) ;
#273 = ADVANCED_FACE ( 'NONE', ( #217 ), #127, .T. ) ;
#274 = PERSON_AND_ORGANIZATION ( #78, #299 ) ;
#275 = EDGE_LOOP ( 'NONE', ( #158 ) ) ;
#276 = ADVANCED_FACE ( 'NONE', ( #199, #79 ), #192, .T. ) ;
#277 = APPROVAL_ROLE ( '' ) ;
#278 = DIRECTION ( 'NONE',  ( 0.0000000000000000000, 1.000000000000000000, 0.0000000000000000000 ) ) ;
#279 = ORIENTED_EDGE ( 'NONE', *, *, #201, .T. ) ;
#280 = DIRECTION ( 'NONE',  ( -1.853597683291005035E-30, 1.000000000000000000, -5.308914765402056222E-16 ) ) ;
#281 = MANIFOLD_SOLID_BREP ( 'Corps-Déplacer/Copier1[1]', #129 ) ;
#282 = FACE_OUTER_BOUND ( 'NONE', #295, .T. ) ;
#283 = AXIS2_PLACEMENT_3D ( 'NONE', #194, #14, #51 ) ;
#284 = FACE_OUTER_BOUND ( 'NONE', #64, .T. ) ;
#285 = ADVANCED_FACE ( 'NONE', ( #168 ), #145, .T. ) ;
#286 = EDGE_CURVE ( 'NONE', #132, #132, #151, .T. ) ;
#287 = DIRECTION ( 'NONE',  ( 2.101413018224943268E-30, -1.000000000000000000, 6.018686094198702209E-16 ) ) ;
#288 = DIRECTION ( 'NONE',  ( 3.491481338843133355E-15, 6.018686094198702209E-16, 1.000000000000000000 ) ) ;
#289 = CC_DESIGN_SECURITY_CLASSIFICATION ( #256, ( #203 ) ) ;
#290 = CARTESIAN_POINT ( 'NONE',  ( 0.0000000000000000000, 0.0000000000000000000, 0.0000000000000000000 ) ) ;
#291 = DIRECTION ( 'NONE',  ( 0.0000000000000000000, -1.000000000000000000, 0.0000000000000000000 ) ) ;
#292 = CARTESIAN_POINT ( 'NONE',  ( 2.433562493173664138E-13, -7.316389877191761450E-15, 69.70000000000001705 ) ) ;
#293 = VERTEX_POINT ( 'NONE', #90 ) ;
#294 = APPLICATION_PROTOCOL_DEFINITION ( 'international standard', 'config_control_design', 1994, #251 ) ;
#295 = EDGE_LOOP ( 'NONE', ( #250 ) ) ;
#296 = APPROVAL_DATE_TIME ( #202, #224 ) ;
#297 = PRODUCT_DEFINITION ( 'UNKNOWN', '', #203, #45 ) ;
#298 = VERTEX_POINT ( 'NONE', #41 ) ;
#299 = ORGANIZATION ( 'UNSPECIFIED', 'UNSPECIFIED', '' ) ;
#300 = AXIS2_PLACEMENT_3D ( 'NONE', #191, #233, #46 ) ;
#301 = COORDINATED_UNIVERSAL_TIME_OFFSET ( 1, 0, .AHEAD. ) ;
#302 = SECURITY_CLASSIFICATION_LEVEL ( 'unclassified' ) ;
#303 = DIRECTION ( 'NONE',  ( 3.491481338843133355E-15, 6.018686094198702209E-16, 1.000000000000000000 ) ) ;
ENDSEC;
END-ISO-10303-21;
