ISO-10303-21;
HEADER;
FILE_DESCRIPTION (( 'STEP AP203' ),
    '1' );
FILE_NAME ('321206.step',
    '2021-11-26T13:11:01',
    ( '' ),
    ( '' ),
    'SwSTEP 2.0',
    'SolidWorks 2019',
    '' );
FILE_SCHEMA (( 'CONFIG_CONTROL_DESIGN' ));
ENDSEC;

DATA;
#1 = APPROVAL_PERSON_ORGANIZATION ( #63, #270, #150 ) ;
#2 = DATE_AND_TIME ( #246, #100 ) ;
#3 = CARTESIAN_POINT ( 'NONE',  ( -1.892735826383161356E-31, 1.369662432702592580, -5.421010862427522170E-17 ) ) ;
#4 = ORIENTED_EDGE ( 'NONE', *, *, #24, .F. ) ;
#5 = EDGE_LOOP ( 'NONE', ( #122 ) ) ;
#6 = SECURITY_CLASSIFICATION ( '', '', #32 ) ;
#7 = DIRECTION ( 'NONE',  ( 0.0000000000000000000, 1.000000000000000000, 0.0000000000000000000 ) ) ;
#8 = DIRECTION ( 'NONE',  ( -3.491481338843133355E-15, 1.049697256412017316E-16, -1.000000000000000000 ) ) ;
#9 = CARTESIAN_POINT ( 'NONE',  ( 3.860978888576244510E-14, -1.160784937131033779E-15, 11.05828304342460022 ) ) ;
#10 = PERSON_AND_ORGANIZATION_ROLE ( 'creator' ) ;
#11 = FACE_OUTER_BOUND ( 'NONE', #287, .T. ) ;
#12 = PERSON_AND_ORGANIZATION ( #255, #72 ) ;
#13 = EDGE_CURVE ( 'NONE', #155, #155, #39, .T. ) ;
#14 = CARTESIAN_POINT ( 'NONE',  ( 3.860978888576243879E-14, 5.864029407392393518E-15, 11.05828304342459845 ) ) ;
#15 = VERTEX_POINT ( 'NONE', #167 ) ;
#16 = CARTESIAN_POINT ( 'NONE',  ( 0.0000000000000000000, 0.0000000000000000000, 0.0000000000000000000 ) ) ;
#17 = CARTESIAN_POINT ( 'NONE',  ( 1.019483501215131844E-13, 1.757406262999419099E-14, 29.19916798274875802 ) ) ;
#18 = CIRCLE ( 'NONE', #207, 1.499999999999995337 ) ;
#19 = DIRECTION ( 'NONE',  ( -3.491481338843133355E-15, -5.302838952814851931E-16, -1.000000000000000000 ) ) ;
#20 = ADVANCED_FACE ( 'NONE', ( #124 ), #33, .T. ) ;
#21 = AXIS2_PLACEMENT_3D ( 'NONE', #152, #247, #229 ) ;
#22 = DIRECTION ( 'NONE',  ( 3.491481338843133355E-15, 6.018686094198702209E-16, 1.000000000000000000 ) ) ;
#23 = DIRECTION ( 'NONE',  ( -3.491481338843133355E-15, -5.302838952814851931E-16, -1.000000000000000000 ) ) ;
#24 = EDGE_CURVE ( 'NONE', #230, #230, #157, .T. ) ;
#25 = CIRCLE ( 'NONE', #44, 1.499999999999997558 ) ;
#26 = ORIENTED_EDGE ( 'NONE', *, *, #151, .F. ) ;
#27 = EDGE_LOOP ( 'NONE', ( #198 ) ) ;
#28 = PERSON_AND_ORGANIZATION_ROLE ( 'design_owner' ) ;
#29 = CIRCLE ( 'NONE', #185, 1.399999999999980815 ) ;
#30 = CC_DESIGN_SECURITY_CLASSIFICATION ( #6, ( #200 ) ) ;
#31 = DIRECTION ( 'NONE',  ( -3.491481338843133355E-15, -5.302838952814851931E-16, -1.000000000000000000 ) ) ;
#32 = SECURITY_CLASSIFICATION_LEVEL ( 'unclassified' ) ;
#33 = PLANE ( 'NONE',  #137 ) ;
#34 = PERSON_AND_ORGANIZATION ( #255, #72 ) ;
#35 = FACE_BOUND ( 'NONE', #244, .T. ) ;
#36 = EDGE_LOOP ( 'NONE', ( #102 ) ) ;
#37 = EDGE_CURVE ( 'NONE', #182, #182, #18, .T. ) ;
#38 = DIRECTION ( 'NONE',  ( -3.491481338843133355E-15, 1.049697256412017316E-16, -1.000000000000000000 ) ) ;
#39 = CIRCLE ( 'NONE', #282, 1.369662432702592580 ) ;
#40 = CARTESIAN_POINT ( 'NONE',  ( 3.929919511603369589E-14, -1.399999999999986811, 11.25573683548745052 ) ) ;
#41 = CC_DESIGN_PERSON_AND_ORGANIZATION_ASSIGNMENT ( #52, #243, ( #200 ) ) ;
#42 = DIRECTION ( 'NONE',  ( 0.0000000000000000000, -1.000000000000000000, 0.0000000000000000000 ) ) ;
#43 = DIRECTION ( 'NONE',  ( -3.491481338843133355E-15, 1.049697256412017316E-16, -1.000000000000000000 ) ) ;
#44 = AXIS2_PLACEMENT_3D ( 'NONE', #86, #43, #135 ) ;
#45 = CARTESIAN_POINT ( 'NONE',  ( 3.929919511603369589E-14, 6.774474677170842422E-15, 11.25573683548745052 ) ) ;
#46 = EDGE_CURVE ( 'NONE', #250, #250, #53, .T. ) ;
#47 = AXIS2_PLACEMENT_3D ( 'NONE', #77, #197, #215 ) ;
#48 = CARTESIAN_POINT ( 'NONE',  ( 3.860978888576244510E-14, 5.864029407392394306E-15, 11.05828304342460022 ) ) ;
#49 = EDGE_LOOP ( 'NONE', ( #284 ) ) ;
#50 = PRODUCT ( '321206', '321206', '', ( #195 ) ) ;
#51 = DIRECTION ( 'NONE',  ( 3.491481338843133355E-15, 6.018686094198702209E-16, 1.000000000000000000 ) ) ;
#52 = PERSON_AND_ORGANIZATION ( #255, #72 ) ;
#53 = CIRCLE ( 'NONE', #47, 1.415192246987776015 ) ;
#54 = EDGE_LOOP ( 'NONE', ( #80 ) ) ;
#55 = CARTESIAN_POINT ( 'NONE',  ( 0.0000000000000000000, 0.0000000000000000000, 0.0000000000000000000 ) ) ;
#56 = CARTESIAN_POINT ( 'NONE',  ( 2.346623984292714912E-30, 3.564037113152697453E-31, 6.720998214099705865E-16 ) ) ;
#57 = VERTEX_POINT ( 'NONE', #40 ) ;
#58 = EDGE_LOOP ( 'NONE', ( #4 ) ) ;
#59 = PERSON_AND_ORGANIZATION ( #255, #72 ) ;
#60 = EDGE_LOOP ( 'NONE', ( #136 ) ) ;
#61 = CIRCLE ( 'NONE', #180, 1.513999999999998458 ) ;
#62 = DIRECTION ( 'NONE',  ( -3.491481338843133355E-15, 1.049697256412017316E-16, -1.000000000000000000 ) ) ;
#63 = PERSON_AND_ORGANIZATION ( #255, #72 ) ;
#64 = DIRECTION ( 'NONE',  ( 0.0000000000000000000, 1.000000000000000000, 0.0000000000000000000 ) ) ;
#65 = DIRECTION ( 'NONE',  ( 1.851476324664351599E-30, -1.000000000000000000, 5.302838952814851931E-16 ) ) ;
#66 = DATE_AND_TIME ( #115, #261 ) ;
#67 = FACE_OUTER_BOUND ( 'NONE', #58, .T. ) ;
#68 = CC_DESIGN_PERSON_AND_ORGANIZATION_ASSIGNMENT ( #34, #28, ( #50 ) ) ;
#69 = CC_DESIGN_PERSON_AND_ORGANIZATION_ASSIGNMENT ( #297, #179, ( #6 ) ) ;
#70 = AXIS2_PLACEMENT_3D ( 'NONE', #257, #163, #7 ) ;
#71 = AXIS2_PLACEMENT_3D ( 'NONE', #176, #303, #65 ) ;
#72 = ORGANIZATION ( 'UNSPECIFIED', 'UNSPECIFIED', '' ) ;
#73 = EDGE_LOOP ( 'NONE', ( #159 ) ) ;
#74 = EDGE_LOOP ( 'NONE', ( #108 ) ) ;
#75 = APPROVAL_ROLE ( '' ) ;
#76 = CC_DESIGN_DATE_AND_TIME_ASSIGNMENT ( #2, #88, ( #6 ) ) ;
#77 = CARTESIAN_POINT ( 'NONE',  ( 8.789332284292655368E-14, 1.515122862271744924E-14, 25.17364817766693363 ) ) ;
#78 = VERTEX_POINT ( 'NONE', #109 ) ;
#79 = ADVANCED_FACE ( 'NONE', ( #166, #143 ), #294, .T. ) ;
#80 = ORIENTED_EDGE ( 'NONE', *, *, #292, .F. ) ;
#81 = DATE_AND_TIME ( #216, #193 ) ;
#82 = DIRECTION ( 'NONE',  ( 3.664998382197393967E-31, 1.000000000000000000, 1.049697256412017316E-16 ) ) ;
#83 = DATE_TIME_ROLE ( 'creation_date' ) ;
#84 = DIRECTION ( 'NONE',  ( -3.491481338843133355E-15, -5.302838952814851931E-16, -1.000000000000000000 ) ) ;
#85 = CARTESIAN_POINT ( 'NONE',  ( 2.444036937190193601E-13, 1.199999999999990186, 70.00000000000000000 ) ) ;
#86 = CARTESIAN_POINT ( 'NONE',  ( 2.433562493173664138E-13, -7.316389877191761450E-15, 69.70000000000001705 ) ) ;
#87 = AXIS2_PLACEMENT_3D ( 'NONE', #189, #8, #82 ) ;
#88 = DATE_TIME_ROLE ( 'classification_date' ) ;
#89 = DIRECTION ( 'NONE',  ( 0.0000000000000000000, -1.000000000000000000, 0.0000000000000000000 ) ) ;
#90 = APPROVAL_STATUS ( 'not_yet_approved' ) ;
#91 = PLANE ( 'NONE',  #21 ) ;
#92 = ADVANCED_FACE ( 'NONE', ( #130 ), #242, .T. ) ;
#93 = COORDINATED_UNIVERSAL_TIME_OFFSET ( 1, 0, .AHEAD. ) ;
#94 = AXIS2_PLACEMENT_3D ( 'NONE', #45, #296, #271 ) ;
#95 = CARTESIAN_POINT ( 'NONE',  ( 3.860978888576244510E-14, 1.513999999999998680, 11.05828304342460022 ) ) ;
#96 = PRODUCT_DEFINITION_SHAPE ( 'NONE', 'NONE',  #186 ) ;
#97 = ADVANCED_FACE ( 'NONE', ( #241, #105 ), #126, .T. ) ;
#98 = AXIS2_PLACEMENT_3D ( 'NONE', #223, #252, #205 ) ;
#99 = FACE_OUTER_BOUND ( 'NONE', #36, .T. ) ;
#100 = LOCAL_TIME ( 14, 11, 1.000000000000000000, #132 ) ;
#101 = CALENDAR_DATE ( 2021, 26, 11 ) ;
#102 = ORIENTED_EDGE ( 'NONE', *, *, #46, .F. ) ;
#103 = ADVANCED_FACE ( 'NONE', ( #226 ), #236, .T. ) ;
#104 = COORDINATED_UNIVERSAL_TIME_OFFSET ( 1, 0, .AHEAD. ) ;
#105 = FACE_OUTER_BOUND ( 'NONE', #119, .T. ) ;
#106 = CARTESIAN_POINT ( 'NONE',  ( 8.728703347107833388E-14, -1.399999999999965938, 25.00000000000000000 ) ) ;
#107 = APPROVAL_PERSON_ORGANIZATION ( #12, #273, #214 ) ;
#108 = ORIENTED_EDGE ( 'NONE', *, *, #37, .F. ) ;
#109 = CARTESIAN_POINT ( 'NONE',  ( 8.728703347107831416E-16, 1.513999999999998680, 0.2499999999999999445 ) ) ;
#110 = CARTESIAN_POINT ( 'NONE',  ( 8.957261597119120321E-14, 1.544070856599329525E-14, 25.65461684548776233 ) ) ;
#111 = ORIENTED_EDGE ( 'NONE', *, *, #218, .T. ) ;
#112 = AXIS2_PLACEMENT_3D ( 'NONE', #172, #38, #139 ) ;
#113 = FACE_OUTER_BOUND ( 'NONE', #184, .T. ) ;
#114 = FACE_OUTER_BOUND ( 'NONE', #5, .T. ) ;
#115 = CALENDAR_DATE ( 2021, 26, 11 ) ;
#116 = CC_DESIGN_PERSON_AND_ORGANIZATION_ASSIGNMENT ( #219, #10, ( #186 ) ) ;
#117 = CARTESIAN_POINT ( 'NONE',  ( 8.957261597119120321E-14, -1.499999999999979794, 25.65461684548776233 ) ) ;
#118 = CIRCLE ( 'NONE', #94, 1.399999999999993472 ) ;
#119 = EDGE_LOOP ( 'NONE', ( #283 ) ) ;
#120 = APPLICATION_PROTOCOL_DEFINITION ( 'international standard', 'config_control_design', 1994, #133 ) ;
#121 = CLOSED_SHELL ( 'NONE', ( #20, #79, #160, #103 ) ) ;
#122 = ORIENTED_EDGE ( 'NONE', *, *, #233, .F. ) ;
#123 = APPROVAL_STATUS ( 'not_yet_approved' ) ;
#124 = FACE_OUTER_BOUND ( 'NONE', #54, .T. ) ;
#125 = COORDINATED_UNIVERSAL_TIME_OFFSET ( 1, 0, .AHEAD. ) ;
#126 = CYLINDRICAL_SURFACE ( 'NONE', #112, 1.499999999999995337 ) ;
#127 = CARTESIAN_POINT ( 'NONE',  ( -1.362585574784673570E-30, 1.369662432702592580, -3.902600193292605150E-16 ) ) ;
#128 = APPROVAL_DATE_TIME ( #187, #273 ) ;
#129 = UNCERTAINTY_MEASURE_WITH_UNIT (LENGTH_MEASURE( 1.000000000000000082E-05 ), #171, 'distance_accuracy_value', 'NONE');
#130 = FACE_OUTER_BOUND ( 'NONE', #49, .T. ) ;
#131 = DIRECTION ( 'NONE',  ( -1.908120816764106041E-30, 1.000000000000000000, -5.370882624597946526E-16 ) ) ;
#132 = COORDINATED_UNIVERSAL_TIME_OFFSET ( 1, 0, .AHEAD. ) ;
#133 = APPLICATION_CONTEXT ( 'configuration controlled 3d designs of mechanical parts and assemblies' ) ;
#134 = CIRCLE ( 'NONE', #168, 1.199999999999997513 ) ;
#135 = DIRECTION ( 'NONE',  ( 0.0000000000000000000, 1.000000000000000000, 0.0000000000000000000 ) ) ;
#136 = ORIENTED_EDGE ( 'NONE', *, *, #292, .T. ) ;
#137 = AXIS2_PLACEMENT_3D ( 'NONE', #14, #188, #164 ) ;
#138 = CC_DESIGN_APPROVAL ( #273, ( #186 ) ) ;
#139 = DIRECTION ( 'NONE',  ( 3.664998382197393967E-31, 1.000000000000000000, 1.049697256412017316E-16 ) ) ;
#140 = PERSON_AND_ORGANIZATION_ROLE ( 'design_supplier' ) ;
#141 = CIRCLE ( 'NONE', #183, 1.513999999999992685 ) ;
#142 = EDGE_LOOP ( 'NONE', ( #148 ) ) ;
#143 = FACE_OUTER_BOUND ( 'NONE', #211, .T. ) ;
#144 = CARTESIAN_POINT ( 'NONE',  ( 2.433562493173664138E-13, 1.499999999999990230, 69.70000000000001705 ) ) ;
#145 = DIRECTION ( 'NONE',  ( -1.851476324664351949E-30, 1.000000000000000000, -5.302838952814851931E-16 ) ) ;
#146 = ADVANCED_FACE ( 'NONE', ( #286, #11 ), #299, .T. ) ;
#147 = PERSON_AND_ORGANIZATION ( #255, #72 ) ;
#148 = ORIENTED_EDGE ( 'NONE', *, *, #280, .T. ) ;
#149 = CARTESIAN_POINT ( 'NONE',  ( 2.433562493173664138E-13, -7.316389877191761450E-15, 69.70000000000001705 ) ) ;
#150 = APPROVAL_ROLE ( '' ) ;
#151 = EDGE_CURVE ( 'NONE', #190, #190, #25, .T. ) ;
#152 = CARTESIAN_POINT ( 'NONE',  ( 2.444036937190193601E-13, -7.347880794884121511E-15, 70.00000000000000000 ) ) ;
#153 = CARTESIAN_POINT ( 'NONE',  ( 8.728703347107860998E-16, 1.325709738203716927E-16, 0.2500000000000007772 ) ) ;
#154 = SHAPE_DEFINITION_REPRESENTATION ( #96, #302 ) ;
#155 = VERTEX_POINT ( 'NONE', #3 ) ;
#156 = CONICAL_SURFACE ( 'NONE', #71, 1.369662432702592580, 0.5235987755982970393 ) ;
#157 = CIRCLE ( 'NONE', #222, 1.513999999999999790 ) ;
#158 = APPROVAL_PERSON_ORGANIZATION ( #147, #196, #75 ) ;
#159 = ORIENTED_EDGE ( 'NONE', *, *, #280, .F. ) ;
#160 = ADVANCED_FACE ( 'NONE', ( #113, #178 ), #156, .T. ) ;
#161 = DIRECTION ( 'NONE',  ( 2.101413018224943268E-30, -1.000000000000000000, 6.018686094198702209E-16 ) ) ;
#162 = AXIS2_PLACEMENT_3D ( 'NONE', #202, #22, #161 ) ;
#163 = DIRECTION ( 'NONE',  ( -3.491481338843133355E-15, 1.049697256412017316E-16, -1.000000000000000000 ) ) ;
#164 = DIRECTION ( 'NONE',  ( 1.851476324664351949E-30, -1.000000000000000000, 5.302838952814851931E-16 ) ) ;
#165 = DATE_AND_TIME ( #173, #289 ) ;
#166 = FACE_OUTER_BOUND ( 'NONE', #60, .T. ) ;
#167 = CARTESIAN_POINT ( 'NONE',  ( 3.860978888576244510E-14, 1.513999999999998680, 11.05828304342460022 ) ) ;
#168 = AXIS2_PLACEMENT_3D ( 'NONE', #269, #210, #209 ) ;
#169 =( GEOMETRIC_REPRESENTATION_CONTEXT ( 3 ) GLOBAL_UNCERTAINTY_ASSIGNED_CONTEXT ( ( #129 ) ) GLOBAL_UNIT_ASSIGNED_CONTEXT ( ( #171, #259, #262 ) ) REPRESENTATION_CONTEXT ( 'NONE', 'WORKASPACE' ) );
#170 = DIRECTION ( 'NONE',  ( 0.0000000000000000000, 1.000000000000000000, 0.0000000000000000000 ) ) ;
#171 =( LENGTH_UNIT ( ) NAMED_UNIT ( * ) SI_UNIT ( .MILLI., .METRE. ) );
#172 = CARTESIAN_POINT ( 'NONE',  ( 0.0000000000000000000, 0.0000000000000000000, 0.0000000000000000000 ) ) ;
#173 = CALENDAR_DATE ( 2021, 26, 11 ) ;
#174 = MANIFOLD_SOLID_BREP ( 'Corps-Déplacer/Copier1[2]', #121 ) ;
#175 = ORIENTED_EDGE ( 'NONE', *, *, #238, .F. ) ;
#176 = CARTESIAN_POINT ( 'NONE',  ( 2.346623984292714912E-30, 3.564037113152697453E-31, 6.720998214099705865E-16 ) ) ;
#177 = FACE_OUTER_BOUND ( 'NONE', #73, .T. ) ;
#178 = FACE_BOUND ( 'NONE', #194, .T. ) ;
#179 = PERSON_AND_ORGANIZATION_ROLE ( 'classification_officer' ) ;
#180 = AXIS2_PLACEMENT_3D ( 'NONE', #153, #19, #131 ) ;
#181 = CC_DESIGN_APPROVAL ( #270, ( #6 ) ) ;
#182 = VERTEX_POINT ( 'NONE', #117 ) ;
#183 = AXIS2_PLACEMENT_3D ( 'NONE', #48, #23, #276 ) ;
#184 = EDGE_LOOP ( 'NONE', ( #232 ) ) ;
#185 = AXIS2_PLACEMENT_3D ( 'NONE', #268, #245, #42 ) ;
#186 = PRODUCT_DEFINITION ( 'UNKNOWN', '', #200, #206 ) ;
#187 = DATE_AND_TIME ( #101, #228 ) ;
#188 = DIRECTION ( 'NONE',  ( 3.491481338843133355E-15, 5.302838952814851931E-16, 1.000000000000000000 ) ) ;
#189 = CARTESIAN_POINT ( 'NONE',  ( 3.860978888576243879E-14, 1.513999999999998680, 11.05828304342459845 ) ) ;
#190 = VERTEX_POINT ( 'NONE', #144 ) ;
#191 = ADVANCED_FACE ( 'NONE', ( #301, #201 ), #231, .T. ) ;
#192 = AXIS2_PLACEMENT_3D ( 'NONE', #16, #84, #145 ) ;
#193 = LOCAL_TIME ( 14, 11, 1.000000000000000000, #290 ) ;
#194 = EDGE_LOOP ( 'NONE', ( #239 ) ) ;
#195 = MECHANICAL_CONTEXT ( 'NONE', #208, 'mechanical' ) ;
#196 = APPROVAL ( #285, 'UNSPECIFIED' ) ;
#197 = DIRECTION ( 'NONE',  ( 3.491481338843133355E-15, 6.018686094198702209E-16, 1.000000000000000000 ) ) ;
#198 = ORIENTED_EDGE ( 'NONE', *, *, #233, .T. ) ;
#199 = CONICAL_SURFACE ( 'NONE', #70, 1.513999999999999790, 0.5235987755982911551 ) ;
#200 = PRODUCT_DEFINITION_FORMATION_WITH_SPECIFIED_SOURCE ( 'ANY', '', #50, .NOT_KNOWN. ) ;
#201 = FACE_BOUND ( 'NONE', #263, .T. ) ;
#202 = CARTESIAN_POINT ( 'NONE',  ( 0.0000000000000000000, 0.0000000000000000000, 0.0000000000000000000 ) ) ;
#203 = APPROVAL_DATE_TIME ( #66, #270 ) ;
#204 = ADVANCED_FACE ( 'NONE', ( #177 ), #91, .T. ) ;
#205 = DIRECTION ( 'NONE',  ( 2.163896063879671835E-30, -1.000000000000000000, 6.018686094198701223E-16 ) ) ;
#206 = DESIGN_CONTEXT ( 'detailed design', #133, 'design' ) ;
#207 = AXIS2_PLACEMENT_3D ( 'NONE', #110, #51, #267 ) ;
#208 = APPLICATION_CONTEXT ( 'configuration controlled 3d designs of mechanical parts and assemblies' ) ;
#209 = DIRECTION ( 'NONE',  ( 0.0000000000000000000, 1.000000000000000000, 0.0000000000000000000 ) ) ;
#210 = DIRECTION ( 'NONE',  ( -3.491481338843133355E-15, 1.049697256412017316E-16, -1.000000000000000000 ) ) ;
#211 = EDGE_LOOP ( 'NONE', ( #175 ) ) ;
#212 = ORIENTED_EDGE ( 'NONE', *, *, #218, .F. ) ;
#213 = FACE_OUTER_BOUND ( 'NONE', #27, .T. ) ;
#214 = APPROVAL_ROLE ( '' ) ;
#215 = DIRECTION ( 'NONE',  ( 0.0000000000000000000, -1.000000000000000000, 0.0000000000000000000 ) ) ;
#216 = CALENDAR_DATE ( 2021, 26, 11 ) ;
#217 = EDGE_LOOP ( 'NONE', ( #260 ) ) ;
#218 = EDGE_CURVE ( 'NONE', #57, #57, #118, .T. ) ;
#219 = PERSON_AND_ORGANIZATION ( #255, #72 ) ;
#220 = DIRECTION ( 'NONE',  ( -1.851476324664351949E-30, 1.000000000000000000, -5.302838952814851931E-16 ) ) ;
#221 = DIRECTION ( 'NONE',  ( 0.0000000000000000000, 0.0000000000000000000, 1.000000000000000000 ) ) ;
#222 = AXIS2_PLACEMENT_3D ( 'NONE', #9, #258, #170 ) ;
#223 = CARTESIAN_POINT ( 'NONE',  ( 8.728703347107833388E-14, 1.517883041479706208E-14, 25.00000000000000000 ) ) ;
#224 = DIRECTION ( 'NONE',  ( -3.491481338843133355E-15, -5.302838952814851931E-16, -1.000000000000000000 ) ) ;
#225 = APPLICATION_PROTOCOL_DEFINITION ( 'international standard', 'config_control_design', 1994, #208 ) ;
#226 = FACE_OUTER_BOUND ( 'NONE', #217, .T. ) ;
#227 = FACE_OUTER_BOUND ( 'NONE', #265, .T. ) ;
#228 = LOCAL_TIME ( 14, 11, 1.000000000000000000, #125 ) ;
#229 = DIRECTION ( 'NONE',  ( -3.664998382197393967E-31, -1.000000000000000000, -1.049697256412017316E-16 ) ) ;
#230 = VERTEX_POINT ( 'NONE', #95 ) ;
#231 = CONICAL_SURFACE ( 'NONE', #298, 2.124999999999982236, 0.1745329251994328645 ) ;
#232 = ORIENTED_EDGE ( 'NONE', *, *, #238, .T. ) ;
#233 = EDGE_CURVE ( 'NONE', #295, #295, #29, .T. ) ;
#234 = ORIENTED_EDGE ( 'NONE', *, *, #151, .T. ) ;
#235 = DIRECTION ( 'NONE',  ( 1.000000000000000000, 0.0000000000000000000, 0.0000000000000000000 ) ) ;
#236 = PLANE ( 'NONE',  #288 ) ;
#237 = TOROIDAL_SURFACE ( 'NONE', #98, 2.399999999999977263, 0.9999999999999965583 ) ;
#238 = EDGE_CURVE ( 'NONE', #78, #78, #61, .T. ) ;
#239 = ORIENTED_EDGE ( 'NONE', *, *, #13, .F. ) ;
#240 = VERTEX_POINT ( 'NONE', #85 ) ;
#241 = FACE_OUTER_BOUND ( 'NONE', #277, .T. ) ;
#242 = PLANE ( 'NONE',  #87 ) ;
#243 = PERSON_AND_ORGANIZATION_ROLE ( 'creator' ) ;
#244 = EDGE_LOOP ( 'NONE', ( #212 ) ) ;
#245 = DIRECTION ( 'NONE',  ( 3.491481338843133355E-15, 6.018686094198702209E-16, 1.000000000000000000 ) ) ;
#246 = CALENDAR_DATE ( 2021, 26, 11 ) ;
#247 = DIRECTION ( 'NONE',  ( 3.491481338843133355E-15, -1.049697256412017316E-16, 1.000000000000000000 ) ) ;
#248 = ADVANCED_FACE ( 'NONE', ( #227, #114 ), #272, .T. ) ;
#249 = DIRECTION ( 'NONE',  ( 3.491481338843133355E-15, 6.018686094198702209E-16, 1.000000000000000000 ) ) ;
#250 = VERTEX_POINT ( 'NONE', #293 ) ;
#251 = CC_DESIGN_DATE_AND_TIME_ASSIGNMENT ( #81, #83, ( #186 ) ) ;
#252 = DIRECTION ( 'NONE',  ( 3.491481338843133355E-15, 6.018686094198702209E-16, 1.000000000000000000 ) ) ;
#253 = AXIS2_PLACEMENT_3D ( 'NONE', #149, #62, #64 ) ;
#254 = ORIENTED_EDGE ( 'NONE', *, *, #46, .T. ) ;
#255 = PERSON ( 'UNSPECIFIED', 'UNSPECIFIED', 'UNSPECIFIED', ('UNSPECIFIED'), ('UNSPECIFIED'), ('UNSPECIFIED') ) ;
#256 = ADVANCED_FACE ( 'NONE', ( #67, #35 ), #199, .T. ) ;
#257 = CARTESIAN_POINT ( 'NONE',  ( 3.860978888576244510E-14, -1.160784937131033779E-15, 11.05828304342460022 ) ) ;
#258 = DIRECTION ( 'NONE',  ( -3.491481338843133355E-15, 1.049697256412017316E-16, -1.000000000000000000 ) ) ;
#259 =( NAMED_UNIT ( * ) PLANE_ANGLE_UNIT ( ) SI_UNIT ( $, .RADIAN. ) );
#260 = ORIENTED_EDGE ( 'NONE', *, *, #13, .T. ) ;
#261 = LOCAL_TIME ( 14, 11, 1.000000000000000000, #93 ) ;
#262 =( NAMED_UNIT ( * ) SI_UNIT ( $, .STERADIAN. ) SOLID_ANGLE_UNIT ( ) );
#263 = EDGE_LOOP ( 'NONE', ( #254 ) ) ;
#264 = CC_DESIGN_PERSON_AND_ORGANIZATION_ASSIGNMENT ( #59, #140, ( #200 ) ) ;
#265 = EDGE_LOOP ( 'NONE', ( #111 ) ) ;
#266 = APPROVAL_DATE_TIME ( #165, #196 ) ;
#267 = DIRECTION ( 'NONE',  ( 0.0000000000000000000, -1.000000000000000000, 0.0000000000000000000 ) ) ;
#268 = CARTESIAN_POINT ( 'NONE',  ( 8.728703347107833388E-14, 1.504671523549675690E-14, 25.00000000000000000 ) ) ;
#269 = CARTESIAN_POINT ( 'NONE',  ( 2.444036937190193601E-13, -7.347880794884121511E-15, 70.00000000000000000 ) ) ;
#270 = APPROVAL ( #90, 'UNSPECIFIED' ) ;
#271 = DIRECTION ( 'NONE',  ( 0.0000000000000000000, -1.000000000000000000, 0.0000000000000000000 ) ) ;
#272 = CYLINDRICAL_SURFACE ( 'NONE', #162, 1.399999999999987255 ) ;
#273 = APPROVAL ( #123, 'UNSPECIFIED' ) ;
#274 = CLOSED_SHELL ( 'NONE', ( #97, #204, #146, #191, #278, #248, #92, #256 ) ) ;
#275 = CC_DESIGN_APPROVAL ( #196, ( #200 ) ) ;
#276 = DIRECTION ( 'NONE',  ( 0.0000000000000000000, 1.000000000000000000, 0.0000000000000000000 ) ) ;
#277 = EDGE_LOOP ( 'NONE', ( #234 ) ) ;
#278 = ADVANCED_FACE ( 'NONE', ( #213, #99 ), #237, .F. ) ;
#279 = PRODUCT_RELATED_PRODUCT_CATEGORY ( 'detail', '', ( #50 ) ) ;
#280 = EDGE_CURVE ( 'NONE', #240, #240, #134, .T. ) ;
#281 = MANIFOLD_SOLID_BREP ( 'Corps-Déplacer/Copier1[1]', #274 ) ;
#282 = AXIS2_PLACEMENT_3D ( 'NONE', #56, #224, #291 ) ;
#283 = ORIENTED_EDGE ( 'NONE', *, *, #37, .T. ) ;
#284 = ORIENTED_EDGE ( 'NONE', *, *, #24, .T. ) ;
#285 = APPROVAL_STATUS ( 'not_yet_approved' ) ;
#286 = FACE_BOUND ( 'NONE', #142, .T. ) ;
#287 = EDGE_LOOP ( 'NONE', ( #26 ) ) ;
#288 = AXIS2_PLACEMENT_3D ( 'NONE', #127, #31, #220 ) ;
#289 = LOCAL_TIME ( 14, 11, 1.000000000000000000, #104 ) ;
#290 = COORDINATED_UNIVERSAL_TIME_OFFSET ( 1, 0, .AHEAD. ) ;
#291 = DIRECTION ( 'NONE',  ( -1.851476324664351599E-30, 1.000000000000000000, -5.302838952814851931E-16 ) ) ;
#292 = EDGE_CURVE ( 'NONE', #15, #15, #141, .T. ) ;
#293 = CARTESIAN_POINT ( 'NONE',  ( 8.789332284292655368E-14, -1.415192246987760694, 25.17364817766693363 ) ) ;
#294 = CYLINDRICAL_SURFACE ( 'NONE', #192, 1.513999999999995572 ) ;
#295 = VERTEX_POINT ( 'NONE', #106 ) ;
#296 = DIRECTION ( 'NONE',  ( 3.491481338843133355E-15, 6.018686094198702209E-16, 1.000000000000000000 ) ) ;
#297 = PERSON_AND_ORGANIZATION ( #255, #72 ) ;
#298 = AXIS2_PLACEMENT_3D ( 'NONE', #17, #249, #89 ) ;
#299 = CONICAL_SURFACE ( 'NONE', #253, 1.499999999999997558, 0.7853981633974573828 ) ;
#300 = AXIS2_PLACEMENT_3D ( 'NONE', #55, #221, #235 ) ;
#301 = FACE_OUTER_BOUND ( 'NONE', #74, .T. ) ;
#302 = ADVANCED_BREP_SHAPE_REPRESENTATION ( '321206', ( #281, #174, #300 ), #169 ) ;
#303 = DIRECTION ( 'NONE',  ( 3.491481338843133355E-15, 5.302838952814851931E-16, 1.000000000000000000 ) ) ;
ENDSEC;
END-ISO-10303-21;
