ISO-10303-21;
HEADER;
FILE_DESCRIPTION (( 'STEP AP203' ),
    '1' );
FILE_NAME ('321205.step',
    '2021-11-26T13:11:00',
    ( '' ),
    ( '' ),
    'SwSTEP 2.0',
    'SolidWorks 2019',
    '' );
FILE_SCHEMA (( 'CONFIG_CONTROL_DESIGN' ));
ENDSEC;

DATA;
#1 = EDGE_LOOP ( 'NONE', ( #261 ) ) ;
#2 = CARTESIAN_POINT ( 'NONE',  ( 3.864002600112522646E-14, 1.508999999999998565, 11.06694329746244598 ) ) ;
#3 = EDGE_LOOP ( 'NONE', ( #287 ) ) ;
#4 = AXIS2_PLACEMENT_3D ( 'NONE', #299, #216, #272 ) ;
#5 = CARTESIAN_POINT ( 'NONE',  ( 8.957261597119120321E-14, -1.499999999999979794, 25.65461684548776233 ) ) ;
#6 = EDGE_LOOP ( 'NONE', ( #254 ) ) ;
#7 = ORIENTED_EDGE ( 'NONE', *, *, #204, .T. ) ;
#8 =( NAMED_UNIT ( * ) PLANE_ANGLE_UNIT ( ) SI_UNIT ( $, .RADIAN. ) );
#9 = EDGE_LOOP ( 'NONE', ( #165 ) ) ;
#10 = SHAPE_DEFINITION_REPRESENTATION ( #81, #23 ) ;
#11 = AXIS2_PLACEMENT_3D ( 'NONE', #183, #97, #294 ) ;
#12 = PERSON_AND_ORGANIZATION_ROLE ( 'design_owner' ) ;
#13 = DATE_TIME_ROLE ( 'creation_date' ) ;
#14 = CC_DESIGN_APPROVAL ( #65, ( #64 ) ) ;
#15 =( GEOMETRIC_REPRESENTATION_CONTEXT ( 3 ) GLOBAL_UNCERTAINTY_ASSIGNED_CONTEXT ( ( #122 ) ) GLOBAL_UNIT_ASSIGNED_CONTEXT ( ( #260, #8, #28 ) ) REPRESENTATION_CONTEXT ( 'NONE', 'WORKASPACE' ) );
#16 = DIRECTION ( 'NONE',  ( 3.664998382197393967E-31, 1.000000000000000000, 1.049697256412017316E-16 ) ) ;
#17 = CARTESIAN_POINT ( 'NONE',  ( 0.0000000000000000000, 0.0000000000000000000, 0.0000000000000000000 ) ) ;
#18 = PLANE ( 'NONE',  #11 ) ;
#19 = ADVANCED_FACE ( 'NONE', ( #78, #257 ), #138, .F. ) ;
#20 = AXIS2_PLACEMENT_3D ( 'NONE', #160, #70, #50 ) ;
#21 = DIRECTION ( 'NONE',  ( 3.491481338843133355E-15, 6.018686094198702209E-16, 1.000000000000000000 ) ) ;
#22 = DIRECTION ( 'NONE',  ( 3.491481338843133355E-15, 6.018686094198702209E-16, 1.000000000000000000 ) ) ;
#23 = ADVANCED_BREP_SHAPE_REPRESENTATION ( '321205', ( #241, #40, #41 ), #15 ) ;
#24 = FACE_OUTER_BOUND ( 'NONE', #217, .T. ) ;
#25 = APPROVAL ( #178, 'UNSPECIFIED' ) ;
#26 = APPROVAL_PERSON_ORGANIZATION ( #132, #108, #226 ) ;
#27 = DIRECTION ( 'NONE',  ( -1.786813732367218773E-30, 1.000000000000000000, -5.388678789689391789E-16 ) ) ;
#28 =( NAMED_UNIT ( * ) SI_UNIT ( $, .STERADIAN. ) SOLID_ANGLE_UNIT ( ) );
#29 = VERTEX_POINT ( 'NONE', #79 ) ;
#30 = EDGE_CURVE ( 'NONE', #168, #168, #47, .T. ) ;
#31 = AXIS2_PLACEMENT_3D ( 'NONE', #142, #235, #145 ) ;
#32 = PLANE ( 'NONE',  #110 ) ;
#33 = ORIENTED_EDGE ( 'NONE', *, *, #152, .T. ) ;
#34 = CALENDAR_DATE ( 2021, 26, 11 ) ;
#35 = ADVANCED_FACE ( 'NONE', ( #67, #96 ), #296, .T. ) ;
#36 = EDGE_LOOP ( 'NONE', ( #102 ) ) ;
#37 = CALENDAR_DATE ( 2021, 26, 11 ) ;
#38 = AXIS2_PLACEMENT_3D ( 'NONE', #116, #274, #94 ) ;
#39 = DATE_TIME_ROLE ( 'classification_date' ) ;
#40 = MANIFOLD_SOLID_BREP ( 'Corps-Déplacer/Copier1[2]', #273 ) ;
#41 = AXIS2_PLACEMENT_3D ( 'NONE', #284, #148, #262 ) ;
#42 = LOCAL_TIME ( 14, 11, 0.0000000000000000000, #291 ) ;
#43 = DIRECTION ( 'NONE',  ( 0.0000000000000000000, -1.000000000000000000, 0.0000000000000000000 ) ) ;
#44 = ADVANCED_FACE ( 'NONE', ( #277, #206 ), #63, .T. ) ;
#45 = DIRECTION ( 'NONE',  ( 0.0000000000000000000, 1.000000000000000000, 0.0000000000000000000 ) ) ;
#46 = DIRECTION ( 'NONE',  ( 0.0000000000000000000, -1.000000000000000000, 0.0000000000000000000 ) ) ;
#47 = CIRCLE ( 'NONE', #4, 1.399999999999980815 ) ;
#48 = CARTESIAN_POINT ( 'NONE',  ( 8.957261597119120321E-14, 1.544070856599329525E-14, 25.65461684548776233 ) ) ;
#49 = DESIGN_CONTEXT ( 'detailed design', #106, 'design' ) ;
#50 = DIRECTION ( 'NONE',  ( -3.664998382197393967E-31, -1.000000000000000000, -1.049697256412017316E-16 ) ) ;
#51 = DIRECTION ( 'NONE',  ( 3.664998382197393967E-31, 1.000000000000000000, 1.049697256412017316E-16 ) ) ;
#52 = AXIS2_PLACEMENT_3D ( 'NONE', #159, #166, #118 ) ;
#53 = EDGE_CURVE ( 'NONE', #126, #126, #263, .T. ) ;
#54 = VERTEX_POINT ( 'NONE', #5 ) ;
#55 = MECHANICAL_CONTEXT ( 'NONE', #172, 'mechanical' ) ;
#56 = ORIENTED_EDGE ( 'NONE', *, *, #53, .T. ) ;
#57 = EDGE_LOOP ( 'NONE', ( #219 ) ) ;
#58 = ORGANIZATION ( 'UNSPECIFIED', 'UNSPECIFIED', '' ) ;
#59 = CC_DESIGN_DATE_AND_TIME_ASSIGNMENT ( #292, #39, ( #91 ) ) ;
#60 = EDGE_LOOP ( 'NONE', ( #238 ) ) ;
#61 = APPROVAL_DATE_TIME ( #173, #65 ) ;
#62 = APPROVAL_STATUS ( 'not_yet_approved' ) ;
#63 = CONICAL_SURFACE ( 'NONE', #237, 1.499999999999997558, 0.7853981633974573828 ) ;
#64 = PRODUCT_DEFINITION_FORMATION_WITH_SPECIFIED_SOURCE ( 'ANY', '', #193, .NOT_KNOWN. ) ;
#65 = APPROVAL ( #62, 'UNSPECIFIED' ) ;
#66 = APPROVAL_ROLE ( '' ) ;
#67 = FACE_OUTER_BOUND ( 'NONE', #103, .T. ) ;
#68 = CC_DESIGN_APPROVAL ( #108, ( #212 ) ) ;
#69 = EDGE_CURVE ( 'NONE', #120, #120, #143, .T. ) ;
#70 = DIRECTION ( 'NONE',  ( 3.491481338843133355E-15, -1.049697256412017316E-16, 1.000000000000000000 ) ) ;
#71 = CYLINDRICAL_SURFACE ( 'NONE', #52, 1.399999999999987255 ) ;
#72 = FACE_BOUND ( 'NONE', #211, .T. ) ;
#73 = AXIS2_PLACEMENT_3D ( 'NONE', #136, #205, #297 ) ;
#74 = CARTESIAN_POINT ( 'NONE',  ( 3.929919511603369589E-14, 6.774474677170842422E-15, 11.25573683548745052 ) ) ;
#75 = PLANE ( 'NONE',  #222 ) ;
#76 = CARTESIAN_POINT ( 'NONE',  ( 8.728703347107833388E-14, -1.399999999999965938, 25.00000000000000000 ) ) ;
#77 = CIRCLE ( 'NONE', #31, 1.499999999999997558 ) ;
#78 = FACE_OUTER_BOUND ( 'NONE', #6, .T. ) ;
#79 = CARTESIAN_POINT ( 'NONE',  ( 3.929919511603369589E-14, -1.399999999999986811, 11.25573683548745052 ) ) ;
#80 = CARTESIAN_POINT ( 'NONE',  ( 8.728703347107833388E-14, 1.517883041479706208E-14, 25.00000000000000000 ) ) ;
#81 = PRODUCT_DEFINITION_SHAPE ( 'NONE', 'NONE',  #212 ) ;
#82 = FACE_OUTER_BOUND ( 'NONE', #259, .T. ) ;
#83 = ORIENTED_EDGE ( 'NONE', *, *, #69, .F. ) ;
#84 = CONICAL_SURFACE ( 'NONE', #73, 1.508999999999999675, 0.5235987755983086966 ) ;
#85 = PERSON_AND_ORGANIZATION ( #200, #58 ) ;
#86 = PERSON_AND_ORGANIZATION ( #200, #58 ) ;
#87 = PERSON_AND_ORGANIZATION ( #200, #58 ) ;
#88 = PERSON_AND_ORGANIZATION_ROLE ( 'classification_officer' ) ;
#89 = AXIS2_PLACEMENT_3D ( 'NONE', #250, #252, #229 ) ;
#90 = APPROVAL_DATE_TIME ( #243, #25 ) ;
#91 = SECURITY_CLASSIFICATION ( '', '', #105 ) ;
#92 = FACE_OUTER_BOUND ( 'NONE', #9, .T. ) ;
#93 = ADVANCED_FACE ( 'NONE', ( #230, #112 ), #182, .T. ) ;
#94 = DIRECTION ( 'NONE',  ( -1.849358286106141585E-30, 1.000000000000000000, -5.296772649281602713E-16 ) ) ;
#95 = FACE_OUTER_BOUND ( 'NONE', #128, .T. ) ;
#96 = FACE_BOUND ( 'NONE', #169, .T. ) ;
#97 = DIRECTION ( 'NONE',  ( 3.491481338843133355E-15, 5.296772649281602713E-16, 1.000000000000000000 ) ) ;
#98 = AXIS2_PLACEMENT_3D ( 'NONE', #207, #21, #43 ) ;
#99 = DIRECTION ( 'NONE',  ( -3.491481338843133355E-15, 1.049697256412017316E-16, -1.000000000000000000 ) ) ;
#100 = ADVANCED_FACE ( 'NONE', ( #276, #72 ), #115, .T. ) ;
#101 = APPLICATION_PROTOCOL_DEFINITION ( 'international standard', 'config_control_design', 1994, #172 ) ;
#102 = ORIENTED_EDGE ( 'NONE', *, *, #204, .F. ) ;
#103 = EDGE_LOOP ( 'NONE', ( #190 ) ) ;
#104 = AXIS2_PLACEMENT_3D ( 'NONE', #185, #135, #248 ) ;
#105 = SECURITY_CLASSIFICATION_LEVEL ( 'unclassified' ) ;
#106 = APPLICATION_CONTEXT ( 'configuration controlled 3d designs of mechanical parts and assemblies' ) ;
#107 = COORDINATED_UNIVERSAL_TIME_OFFSET ( 1, 0, .AHEAD. ) ;
#108 = APPROVAL ( #199, 'UNSPECIFIED' ) ;
#109 = DATE_AND_TIME ( #129, #282 ) ;
#110 = AXIS2_PLACEMENT_3D ( 'NONE', #187, #99, #51 ) ;
#111 = ADVANCED_FACE ( 'NONE', ( #137 ), #156, .T. ) ;
#112 = FACE_OUTER_BOUND ( 'NONE', #57, .T. ) ;
#113 = DIRECTION ( 'NONE',  ( -3.491481338843133355E-15, 1.049697256412017316E-16, -1.000000000000000000 ) ) ;
#114 = DIRECTION ( 'NONE',  ( 0.0000000000000000000, -1.000000000000000000, 0.0000000000000000000 ) ) ;
#115 = CONICAL_SURFACE ( 'NONE', #154, 2.124999999999982236, 0.1745329251994328645 ) ;
#116 = CARTESIAN_POINT ( 'NONE',  ( 0.0000000000000000000, 0.0000000000000000000, 0.0000000000000000000 ) ) ;
#117 = DIRECTION ( 'NONE',  ( 0.0000000000000000000, -1.000000000000000000, 0.0000000000000000000 ) ) ;
#118 = DIRECTION ( 'NONE',  ( 2.101413018224943268E-30, -1.000000000000000000, 6.018686094198702209E-16 ) ) ;
#119 = AXIS2_PLACEMENT_3D ( 'NONE', #278, #218, #27 ) ;
#120 = VERTEX_POINT ( 'NONE', #258 ) ;
#121 = ORIENTED_EDGE ( 'NONE', *, *, #158, .T. ) ;
#122 = UNCERTAINTY_MEASURE_WITH_UNIT (LENGTH_MEASURE( 1.000000000000000082E-05 ), #260, 'distance_accuracy_value', 'NONE');
#123 = DIRECTION ( 'NONE',  ( -1.849358286106141935E-30, 1.000000000000000000, -5.296772649281602713E-16 ) ) ;
#124 = CARTESIAN_POINT ( 'NONE',  ( 2.433562493173664138E-13, 1.499999999999990230, 69.70000000000001705 ) ) ;
#125 = AXIS2_PLACEMENT_3D ( 'NONE', #48, #22, #117 ) ;
#126 = VERTEX_POINT ( 'NONE', #2 ) ;
#127 = CC_DESIGN_PERSON_AND_ORGANIZATION_ASSIGNMENT ( #85, #293, ( #64 ) ) ;
#128 = EDGE_LOOP ( 'NONE', ( #7 ) ) ;
#129 = CALENDAR_DATE ( 2021, 26, 11 ) ;
#130 = ORIENTED_EDGE ( 'NONE', *, *, #69, .T. ) ;
#131 = CC_DESIGN_SECURITY_CLASSIFICATION ( #91, ( #64 ) ) ;
#132 = PERSON_AND_ORGANIZATION ( #200, #58 ) ;
#133 = COORDINATED_UNIVERSAL_TIME_OFFSET ( 1, 0, .AHEAD. ) ;
#134 = CC_DESIGN_PERSON_AND_ORGANIZATION_ASSIGNMENT ( #179, #88, ( #91 ) ) ;
#135 = DIRECTION ( 'NONE',  ( -3.491481338843133355E-15, 1.049697256412017316E-16, -1.000000000000000000 ) ) ;
#136 = CARTESIAN_POINT ( 'NONE',  ( 3.864002600112522646E-14, -1.161694001621369306E-15, 11.06694329746244598 ) ) ;
#137 = FACE_OUTER_BOUND ( 'NONE', #283, .T. ) ;
#138 = TOROIDAL_SURFACE ( 'NONE', #303, 2.399999999999977263, 0.9999999999999965583 ) ;
#139 = CC_DESIGN_DATE_AND_TIME_ASSIGNMENT ( #109, #13, ( #212 ) ) ;
#140 = CARTESIAN_POINT ( 'NONE',  ( 1.019483501215131844E-13, 1.757406262999419099E-14, 29.19916798274875802 ) ) ;
#141 = FACE_OUTER_BOUND ( 'NONE', #242, .T. ) ;
#142 = CARTESIAN_POINT ( 'NONE',  ( 2.433562493173664138E-13, -7.316389877191761450E-15, 69.70000000000001705 ) ) ;
#143 = CIRCLE ( 'NONE', #98, 1.415192246987776015 ) ;
#144 = ORIENTED_EDGE ( 'NONE', *, *, #174, .F. ) ;
#145 = DIRECTION ( 'NONE',  ( 0.0000000000000000000, 1.000000000000000000, 0.0000000000000000000 ) ) ;
#146 = CC_DESIGN_APPROVAL ( #25, ( #91 ) ) ;
#147 = VERTEX_POINT ( 'NONE', #234 ) ;
#148 = DIRECTION ( 'NONE',  ( 0.0000000000000000000, 0.0000000000000000000, 1.000000000000000000 ) ) ;
#149 = EDGE_LOOP ( 'NONE', ( #153 ) ) ;
#150 = APPROVAL_ROLE ( '' ) ;
#151 = EDGE_LOOP ( 'NONE', ( #175 ) ) ;
#152 = EDGE_CURVE ( 'NONE', #213, #213, #198, .T. ) ;
#153 = ORIENTED_EDGE ( 'NONE', *, *, #30, .F. ) ;
#154 = AXIS2_PLACEMENT_3D ( 'NONE', #140, #271, #46 ) ;
#155 = CALENDAR_DATE ( 2021, 26, 11 ) ;
#156 = PLANE ( 'NONE',  #20 ) ;
#157 = CYLINDRICAL_SURFACE ( 'NONE', #186, 1.499999999999995337 ) ;
#158 = EDGE_CURVE ( 'NONE', #54, #54, #251, .T. ) ;
#159 = CARTESIAN_POINT ( 'NONE',  ( 0.0000000000000000000, 0.0000000000000000000, 0.0000000000000000000 ) ) ;
#160 = CARTESIAN_POINT ( 'NONE',  ( 2.444036937190193601E-13, -7.347880794884121511E-15, 70.00000000000000000 ) ) ;
#161 = DIRECTION ( 'NONE',  ( 3.491481338843133355E-15, 6.018686094198702209E-16, 1.000000000000000000 ) ) ;
#162 = ADVANCED_FACE ( 'NONE', ( #302 ), #18, .T. ) ;
#163 = DIRECTION ( 'NONE',  ( -3.491481338843133355E-15, -5.296772649281602713E-16, -1.000000000000000000 ) ) ;
#164 = DIRECTION ( 'NONE',  ( 0.0000000000000000000, 1.000000000000000000, 0.0000000000000000000 ) ) ;
#165 = ORIENTED_EDGE ( 'NONE', *, *, #53, .F. ) ;
#166 = DIRECTION ( 'NONE',  ( 3.491481338843133355E-15, 6.018686094198702209E-16, 1.000000000000000000 ) ) ;
#167 = ORIENTED_EDGE ( 'NONE', *, *, #279, .T. ) ;
#168 = VERTEX_POINT ( 'NONE', #76 ) ;
#169 = EDGE_LOOP ( 'NONE', ( #215 ) ) ;
#170 = CIRCLE ( 'NONE', #104, 1.199999999999997513 ) ;
#171 = APPROVAL_PERSON_ORGANIZATION ( #197, #65, #150 ) ;
#172 = APPLICATION_CONTEXT ( 'configuration controlled 3d designs of mechanical parts and assemblies' ) ;
#173 = DATE_AND_TIME ( #265, #42 ) ;
#174 = EDGE_CURVE ( 'NONE', #147, #147, #170, .T. ) ;
#175 = ORIENTED_EDGE ( 'NONE', *, *, #269, .F. ) ;
#176 = PERSON_AND_ORGANIZATION_ROLE ( 'creator' ) ;
#177 = APPLICATION_PROTOCOL_DEFINITION ( 'international standard', 'config_control_design', 1994, #106 ) ;
#178 = APPROVAL_STATUS ( 'not_yet_approved' ) ;
#179 = PERSON_AND_ORGANIZATION ( #200, #58 ) ;
#180 = DIRECTION ( 'NONE',  ( 0.0000000000000000000, 1.000000000000000000, 0.0000000000000000000 ) ) ;
#181 = CIRCLE ( 'NONE', #227, 1.399999999999993472 ) ;
#182 = CYLINDRICAL_SURFACE ( 'NONE', #38, 1.508999999999995678 ) ;
#183 = CARTESIAN_POINT ( 'NONE',  ( 3.864002600112522646E-14, 5.861908256914943429E-15, 11.06694329746244598 ) ) ;
#184 = DIRECTION ( 'NONE',  ( -3.491481338843133355E-15, 1.049697256412017316E-16, -1.000000000000000000 ) ) ;
#185 = CARTESIAN_POINT ( 'NONE',  ( 2.444036937190193601E-13, -7.347880794884121511E-15, 70.00000000000000000 ) ) ;
#186 = AXIS2_PLACEMENT_3D ( 'NONE', #17, #113, #16 ) ;
#187 = CARTESIAN_POINT ( 'NONE',  ( 3.864002600112522646E-14, 1.508999999999998565, 11.06694329746244598 ) ) ;
#188 = VERTEX_POINT ( 'NONE', #124 ) ;
#189 = CLOSED_SHELL ( 'NONE', ( #220, #111, #44, #100, #19, #246, #266, #228 ) ) ;
#190 = ORIENTED_EDGE ( 'NONE', *, *, #298, .T. ) ;
#191 = EDGE_LOOP ( 'NONE', ( #83 ) ) ;
#192 = CARTESIAN_POINT ( 'NONE',  ( -1.892735826383161356E-31, 1.364662432702592465, -5.421010862427522170E-17 ) ) ;
#193 = PRODUCT ( '321205', '321205', '', ( #55 ) ) ;
#194 = LOCAL_TIME ( 14, 11, 0.0000000000000000000, #107 ) ;
#195 = DIRECTION ( 'NONE',  ( 2.163896063879671835E-30, -1.000000000000000000, 6.018686094198701223E-16 ) ) ;
#196 = PERSON_AND_ORGANIZATION ( #200, #58 ) ;
#197 = PERSON_AND_ORGANIZATION ( #200, #58 ) ;
#198 = CIRCLE ( 'NONE', #209, 1.364662432702592465 ) ;
#199 = APPROVAL_STATUS ( 'not_yet_approved' ) ;
#200 = PERSON ( 'UNSPECIFIED', 'UNSPECIFIED', 'UNSPECIFIED', ('UNSPECIFIED'), ('UNSPECIFIED'), ('UNSPECIFIED') ) ;
#201 = DIRECTION ( 'NONE',  ( -3.491481338843133355E-15, 1.049697256412017316E-16, -1.000000000000000000 ) ) ;
#202 = LOCAL_TIME ( 14, 11, 0.0000000000000000000, #221 ) ;
#203 = CARTESIAN_POINT ( 'NONE',  ( 2.334476195017988485E-30, 3.541531075250526149E-31, 6.686205562798434999E-16 ) ) ;
#204 = EDGE_CURVE ( 'NONE', #29, #29, #181, .T. ) ;
#205 = DIRECTION ( 'NONE',  ( -3.491481338843133355E-15, 1.049697256412017316E-16, -1.000000000000000000 ) ) ;
#206 = FACE_OUTER_BOUND ( 'NONE', #151, .T. ) ;
#207 = CARTESIAN_POINT ( 'NONE',  ( 8.789332284292655368E-14, 1.515122862271744924E-14, 25.17364817766693363 ) ) ;
#208 = VERTEX_POINT ( 'NONE', #288 ) ;
#209 = AXIS2_PLACEMENT_3D ( 'NONE', #203, #295, #233 ) ;
#210 = CARTESIAN_POINT ( 'NONE',  ( 8.728703347107833388E-16, 1.508999999999998565, 0.2499999999999999445 ) ) ;
#211 = EDGE_LOOP ( 'NONE', ( #130 ) ) ;
#212 = PRODUCT_DEFINITION ( 'UNKNOWN', '', #64, #49 ) ;
#213 = VERTEX_POINT ( 'NONE', #192 ) ;
#214 = AXIS2_PLACEMENT_3D ( 'NONE', #232, #184, #180 ) ;
#215 = ORIENTED_EDGE ( 'NONE', *, *, #152, .F. ) ;
#216 = DIRECTION ( 'NONE',  ( 3.491481338843133355E-15, 6.018686094198702209E-16, 1.000000000000000000 ) ) ;
#217 = EDGE_LOOP ( 'NONE', ( #56 ) ) ;
#218 = DIRECTION ( 'NONE',  ( -3.491481338843133355E-15, -5.296772649281602713E-16, -1.000000000000000000 ) ) ;
#219 = ORIENTED_EDGE ( 'NONE', *, *, #298, .F. ) ;
#220 = ADVANCED_FACE ( 'NONE', ( #253, #141 ), #157, .T. ) ;
#221 = COORDINATED_UNIVERSAL_TIME_OFFSET ( 1, 0, .AHEAD. ) ;
#222 = AXIS2_PLACEMENT_3D ( 'NONE', #236, #163, #123 ) ;
#223 = ORIENTED_EDGE ( 'NONE', *, *, #279, .F. ) ;
#224 = APPROVAL_DATE_TIME ( #239, #108 ) ;
#225 = EDGE_LOOP ( 'NONE', ( #223 ) ) ;
#226 = APPROVAL_ROLE ( '' ) ;
#227 = AXIS2_PLACEMENT_3D ( 'NONE', #74, #161, #114 ) ;
#228 = ADVANCED_FACE ( 'NONE', ( #92, #249 ), #84, .T. ) ;
#229 = DIRECTION ( 'NONE',  ( 1.849358286106141935E-30, -1.000000000000000000, 5.296772649281602713E-16 ) ) ;
#230 = FACE_OUTER_BOUND ( 'NONE', #289, .T. ) ;
#231 = AXIS2_PLACEMENT_3D ( 'NONE', #256, #280, #164 ) ;
#232 = CARTESIAN_POINT ( 'NONE',  ( 3.864002600112522646E-14, -1.161694001621369306E-15, 11.06694329746244598 ) ) ;
#233 = DIRECTION ( 'NONE',  ( -1.849358286106141935E-30, 1.000000000000000000, -5.296772649281602713E-16 ) ) ;
#234 = CARTESIAN_POINT ( 'NONE',  ( 2.444036937190193601E-13, 1.199999999999990186, 70.00000000000000000 ) ) ;
#235 = DIRECTION ( 'NONE',  ( -3.491481338843133355E-15, 1.049697256412017316E-16, -1.000000000000000000 ) ) ;
#236 = CARTESIAN_POINT ( 'NONE',  ( -1.356511680147310356E-30, 1.364662432702592465, -3.885203867641969717E-16 ) ) ;
#237 = AXIS2_PLACEMENT_3D ( 'NONE', #300, #201, #45 ) ;
#238 = ORIENTED_EDGE ( 'NONE', *, *, #174, .T. ) ;
#239 = DATE_AND_TIME ( #34, #194 ) ;
#240 = PERSON_AND_ORGANIZATION_ROLE ( 'creator' ) ;
#241 = MANIFOLD_SOLID_BREP ( 'Corps-Déplacer/Copier1[1]', #189 ) ;
#242 = EDGE_LOOP ( 'NONE', ( #121 ) ) ;
#243 = DATE_AND_TIME ( #155, #245 ) ;
#244 = CC_DESIGN_PERSON_AND_ORGANIZATION_ASSIGNMENT ( #86, #176, ( #212 ) ) ;
#245 = LOCAL_TIME ( 14, 11, 0.0000000000000000000, #133 ) ;
#246 = ADVANCED_FACE ( 'NONE', ( #95, #275 ), #71, .T. ) ;
#247 = CIRCLE ( 'NONE', #231, 1.508999999999992792 ) ;
#248 = DIRECTION ( 'NONE',  ( 0.0000000000000000000, 1.000000000000000000, 0.0000000000000000000 ) ) ;
#249 = FACE_BOUND ( 'NONE', #36, .T. ) ;
#250 = CARTESIAN_POINT ( 'NONE',  ( 2.334476195017988485E-30, 3.541531075250526149E-31, 6.686205562798434999E-16 ) ) ;
#251 = CIRCLE ( 'NONE', #125, 1.499999999999995337 ) ;
#252 = DIRECTION ( 'NONE',  ( 3.491481338843133355E-15, 5.296772649281602713E-16, 1.000000000000000000 ) ) ;
#253 = FACE_OUTER_BOUND ( 'NONE', #1, .T. ) ;
#254 = ORIENTED_EDGE ( 'NONE', *, *, #30, .T. ) ;
#255 = ADVANCED_FACE ( 'NONE', ( #82 ), #75, .T. ) ;
#256 = CARTESIAN_POINT ( 'NONE',  ( 3.864002600112522646E-14, 5.861908256914943429E-15, 11.06694329746244598 ) ) ;
#257 = FACE_OUTER_BOUND ( 'NONE', #191, .T. ) ;
#258 = CARTESIAN_POINT ( 'NONE',  ( 8.789332284292655368E-14, -1.415192246987760694, 25.17364817766693363 ) ) ;
#259 = EDGE_LOOP ( 'NONE', ( #33 ) ) ;
#260 =( LENGTH_UNIT ( ) NAMED_UNIT ( * ) SI_UNIT ( .MILLI., .METRE. ) );
#261 = ORIENTED_EDGE ( 'NONE', *, *, #269, .T. ) ;
#262 = DIRECTION ( 'NONE',  ( 1.000000000000000000, 0.0000000000000000000, 0.0000000000000000000 ) ) ;
#263 = CIRCLE ( 'NONE', #214, 1.508999999999999675 ) ;
#264 = PERSON_AND_ORGANIZATION ( #200, #58 ) ;
#265 = CALENDAR_DATE ( 2021, 26, 11 ) ;
#266 = ADVANCED_FACE ( 'NONE', ( #24 ), #32, .T. ) ;
#267 = COORDINATED_UNIVERSAL_TIME_OFFSET ( 1, 0, .AHEAD. ) ;
#268 = CIRCLE ( 'NONE', #119, 1.508999999999998343 ) ;
#269 = EDGE_CURVE ( 'NONE', #188, #188, #77, .T. ) ;
#270 = PRODUCT_RELATED_PRODUCT_CATEGORY ( 'detail', '', ( #193 ) ) ;
#271 = DIRECTION ( 'NONE',  ( 3.491481338843133355E-15, 6.018686094198702209E-16, 1.000000000000000000 ) ) ;
#272 = DIRECTION ( 'NONE',  ( 0.0000000000000000000, -1.000000000000000000, 0.0000000000000000000 ) ) ;
#273 = CLOSED_SHELL ( 'NONE', ( #162, #93, #35, #255 ) ) ;
#274 = DIRECTION ( 'NONE',  ( -3.491481338843133355E-15, -5.296772649281602713E-16, -1.000000000000000000 ) ) ;
#275 = FACE_OUTER_BOUND ( 'NONE', #149, .T. ) ;
#276 = FACE_OUTER_BOUND ( 'NONE', #3, .T. ) ;
#277 = FACE_BOUND ( 'NONE', #60, .T. ) ;
#278 = CARTESIAN_POINT ( 'NONE',  ( 8.728703347107860998E-16, 1.324193162320404623E-16, 0.2500000000000007772 ) ) ;
#279 = EDGE_CURVE ( 'NONE', #208, #208, #247, .T. ) ;
#280 = DIRECTION ( 'NONE',  ( -3.491481338843133355E-15, -5.296772649281602713E-16, -1.000000000000000000 ) ) ;
#281 = VERTEX_POINT ( 'NONE', #210 ) ;
#282 = LOCAL_TIME ( 14, 11, 0.0000000000000000000, #267 ) ;
#283 = EDGE_LOOP ( 'NONE', ( #144 ) ) ;
#284 = CARTESIAN_POINT ( 'NONE',  ( 0.0000000000000000000, 0.0000000000000000000, 0.0000000000000000000 ) ) ;
#285 = CC_DESIGN_PERSON_AND_ORGANIZATION_ASSIGNMENT ( #87, #240, ( #64 ) ) ;
#286 = DIRECTION ( 'NONE',  ( 3.491481338843133355E-15, 6.018686094198702209E-16, 1.000000000000000000 ) ) ;
#287 = ORIENTED_EDGE ( 'NONE', *, *, #158, .F. ) ;
#288 = CARTESIAN_POINT ( 'NONE',  ( 3.864002600112522646E-14, 1.508999999999998565, 11.06694329746244598 ) ) ;
#289 = EDGE_LOOP ( 'NONE', ( #167 ) ) ;
#290 = CC_DESIGN_PERSON_AND_ORGANIZATION_ASSIGNMENT ( #264, #12, ( #193 ) ) ;
#291 = COORDINATED_UNIVERSAL_TIME_OFFSET ( 1, 0, .AHEAD. ) ;
#292 = DATE_AND_TIME ( #37, #202 ) ;
#293 = PERSON_AND_ORGANIZATION_ROLE ( 'design_supplier' ) ;
#294 = DIRECTION ( 'NONE',  ( 1.849358286106141935E-30, -1.000000000000000000, 5.296772649281602713E-16 ) ) ;
#295 = DIRECTION ( 'NONE',  ( -3.491481338843133355E-15, -5.296772649281602713E-16, -1.000000000000000000 ) ) ;
#296 = CONICAL_SURFACE ( 'NONE', #89, 1.364662432702592465, 0.5235987755982970393 ) ;
#297 = DIRECTION ( 'NONE',  ( 0.0000000000000000000, 1.000000000000000000, 0.0000000000000000000 ) ) ;
#298 = EDGE_CURVE ( 'NONE', #281, #281, #268, .T. ) ;
#299 = CARTESIAN_POINT ( 'NONE',  ( 8.728703347107833388E-14, 1.504671523549675690E-14, 25.00000000000000000 ) ) ;
#300 = CARTESIAN_POINT ( 'NONE',  ( 2.433562493173664138E-13, -7.316389877191761450E-15, 69.70000000000001705 ) ) ;
#301 = APPROVAL_PERSON_ORGANIZATION ( #196, #25, #66 ) ;
#302 = FACE_OUTER_BOUND ( 'NONE', #225, .T. ) ;
#303 = AXIS2_PLACEMENT_3D ( 'NONE', #80, #286, #195 ) ;
ENDSEC;
END-ISO-10303-21;
