ISO-10303-21;
HEADER;
FILE_DESCRIPTION (( 'STEP AP203' ),
    '1' );
FILE_NAME ('321204.step',
    '2021-11-26T13:11:00',
    ( '' ),
    ( '' ),
    'SwSTEP 2.0',
    'SolidWorks 2019',
    '' );
FILE_SCHEMA (( 'CONFIG_CONTROL_DESIGN' ));
ENDSEC;

DATA;
#1 = DIRECTION ( 'NONE',  ( -3.491481338843133355E-15, 1.049697256412017316E-16, -1.000000000000000000 ) ) ;
#2 = VERTEX_POINT ( 'NONE', #259 ) ;
#3 = ORIENTED_EDGE ( 'NONE', *, *, #105, .T. ) ;
#4 = AXIS2_PLACEMENT_3D ( 'NONE', #157, #222, #203 ) ;
#5 = SECURITY_CLASSIFICATION ( '', '', #150 ) ;
#6 = PERSON_AND_ORGANIZATION ( #195, #252 ) ;
#7 = DIRECTION ( 'NONE',  ( -3.491481338843133355E-15, 1.049697256412017316E-16, -1.000000000000000000 ) ) ;
#8 = ADVANCED_BREP_SHAPE_REPRESENTATION ( '321204', ( #240, #42, #162 ), #233 ) ;
#9 = DIRECTION ( 'NONE',  ( 3.491481338843133355E-15, 5.290110671732203817E-16, 1.000000000000000000 ) ) ;
#10 = PERSON_AND_ORGANIZATION_ROLE ( 'creator' ) ;
#11 = FACE_BOUND ( 'NONE', #27, .T. ) ;
#12 = DATE_AND_TIME ( #35, #168 ) ;
#13 = DIRECTION ( 'NONE',  ( 3.491481338843133355E-15, 6.018686094198702209E-16, 1.000000000000000000 ) ) ;
#14 = FACE_OUTER_BOUND ( 'NONE', #146, .T. ) ;
#15 = CC_DESIGN_DATE_AND_TIME_ASSIGNMENT ( #12, #241, ( #5 ) ) ;
#16 = CARTESIAN_POINT ( 'NONE',  ( 3.867328682802432381E-14, 5.859574991389741548E-15, 11.07646957690409018 ) ) ;
#17 = DIRECTION ( 'NONE',  ( 3.664998382197393967E-31, 1.000000000000000000, 1.049697256412017316E-16 ) ) ;
#18 = DIRECTION ( 'NONE',  ( 0.0000000000000000000, 1.000000000000000000, 0.0000000000000000000 ) ) ;
#19 = DIRECTION ( 'NONE',  ( -3.491481338843133355E-15, -5.290110671732203817E-16, -1.000000000000000000 ) ) ;
#20 = ADVANCED_FACE ( 'NONE', ( #37 ), #224, .T. ) ;
#21 = DIRECTION ( 'NONE',  ( 3.491481338843133355E-15, 6.018686094198702209E-16, 1.000000000000000000 ) ) ;
#22 = CARTESIAN_POINT ( 'NONE',  ( 3.929919511603369589E-14, -1.399999999999986811, 11.25573683548745052 ) ) ;
#23 = MECHANICAL_CONTEXT ( 'NONE', #231, 'mechanical' ) ;
#24 = APPROVAL_PERSON_ORGANIZATION ( #46, #303, #102 ) ;
#25 = CARTESIAN_POINT ( 'NONE',  ( 8.957261597119120321E-14, -1.499999999999979794, 25.65461684548776233 ) ) ;
#26 = ADVANCED_FACE ( 'NONE', ( #14, #11 ), #151, .T. ) ;
#27 = EDGE_LOOP ( 'NONE', ( #120 ) ) ;
#28 = AXIS2_PLACEMENT_3D ( 'NONE', #138, #234, #210 ) ;
#29 = FACE_OUTER_BOUND ( 'NONE', #172, .T. ) ;
#30 = CC_DESIGN_PERSON_AND_ORGANIZATION_ASSIGNMENT ( #84, #267, ( #273 ) ) ;
#31 = COORDINATED_UNIVERSAL_TIME_OFFSET ( 1, 0, .AHEAD. ) ;
#32 = DIRECTION ( 'NONE',  ( 3.491481338843133355E-15, 6.018686094198702209E-16, 1.000000000000000000 ) ) ;
#33 = DIRECTION ( 'NONE',  ( 3.491481338843133355E-15, 6.018686094198702209E-16, 1.000000000000000000 ) ) ;
#34 = AXIS2_PLACEMENT_3D ( 'NONE', #256, #164, #137 ) ;
#35 = CALENDAR_DATE ( 2021, 26, 11 ) ;
#36 = ADVANCED_FACE ( 'NONE', ( #104 ), #278, .T. ) ;
#37 = FACE_OUTER_BOUND ( 'NONE', #74, .T. ) ;
#38 = CARTESIAN_POINT ( 'NONE',  ( 2.433562493173664138E-13, -7.316389877191761450E-15, 69.70000000000001705 ) ) ;
#39 = CIRCLE ( 'NONE', #115, 1.399999999999980815 ) ;
#40 = CARTESIAN_POINT ( 'NONE',  ( 3.929919511603369589E-14, 6.774474677170842422E-15, 11.25573683548745052 ) ) ;
#41 = CARTESIAN_POINT ( 'NONE',  ( -1.892735826383161356E-31, 1.359162432702592627, -5.421010862427522170E-17 ) ) ;
#42 = MANIFOLD_SOLID_BREP ( 'Corps-Déplacer/Copier1[2]', #128 ) ;
#43 = PLANE ( 'NONE',  #44 ) ;
#44 = AXIS2_PLACEMENT_3D ( 'NONE', #232, #112, #17 ) ;
#45 = CARTESIAN_POINT ( 'NONE',  ( 3.867328682802432381E-14, 1.503499999999998726, 11.07646957690409018 ) ) ;
#46 = PERSON_AND_ORGANIZATION ( #195, #252 ) ;
#47 = DIRECTION ( 'NONE',  ( 0.0000000000000000000, 0.0000000000000000000, 1.000000000000000000 ) ) ;
#48 = ORIENTED_EDGE ( 'NONE', *, *, #189, .T. ) ;
#49 = ADVANCED_FACE ( 'NONE', ( #29, #205 ), #293, .T. ) ;
#50 = CIRCLE ( 'NONE', #87, 1.499999999999997558 ) ;
#51 = ORIENTED_EDGE ( 'NONE', *, *, #148, .F. ) ;
#52 = APPLICATION_CONTEXT ( 'configuration controlled 3d designs of mechanical parts and assemblies' ) ;
#53 = EDGE_CURVE ( 'NONE', #135, #135, #139, .T. ) ;
#54 = PERSON_AND_ORGANIZATION ( #195, #252 ) ;
#55 = EDGE_LOOP ( 'NONE', ( #118 ) ) ;
#56 = AXIS2_PLACEMENT_3D ( 'NONE', #108, #7, #208 ) ;
#57 = ADVANCED_FACE ( 'NONE', ( #132, #101 ), #159, .T. ) ;
#58 = CARTESIAN_POINT ( 'NONE',  ( 2.444036937190193601E-13, -7.347880794884121511E-15, 70.00000000000000000 ) ) ;
#59 = APPROVAL_ROLE ( '' ) ;
#60 = FACE_OUTER_BOUND ( 'NONE', #242, .T. ) ;
#61 = ADVANCED_FACE ( 'NONE', ( #60, #247 ), #290, .T. ) ;
#62 = CIRCLE ( 'NONE', #28, 1.499999999999995337 ) ;
#63 = CARTESIAN_POINT ( 'NONE',  ( 1.019483501215131844E-13, 1.757406262999419099E-14, 29.19916798274875802 ) ) ;
#64 = CC_DESIGN_PERSON_AND_ORGANIZATION_ASSIGNMENT ( #176, #270, ( #5 ) ) ;
#65 = AXIS2_PLACEMENT_3D ( 'NONE', #211, #300, #253 ) ;
#66 = ORIENTED_EDGE ( 'NONE', *, *, #148, .T. ) ;
#67 = DIRECTION ( 'NONE',  ( -3.491481338843133355E-15, -5.290110671732203817E-16, -1.000000000000000000 ) ) ;
#68 = FACE_OUTER_BOUND ( 'NONE', #153, .T. ) ;
#69 = CC_DESIGN_APPROVAL ( #303, ( #273 ) ) ;
#70 = CARTESIAN_POINT ( 'NONE',  ( 8.728703347107833388E-16, 1.503499999999998726, 0.2499999999999999445 ) ) ;
#71 = DIRECTION ( 'NONE',  ( 0.0000000000000000000, -1.000000000000000000, 0.0000000000000000000 ) ) ;
#72 = DIRECTION ( 'NONE',  ( -3.491481338843133355E-15, -5.290110671732203817E-16, -1.000000000000000000 ) ) ;
#73 = AXIS2_PLACEMENT_3D ( 'NONE', #94, #110, #299 ) ;
#74 = EDGE_LOOP ( 'NONE', ( #51 ) ) ;
#75 = VERTEX_POINT ( 'NONE', #22 ) ;
#76 = ORIENTED_EDGE ( 'NONE', *, *, #105, .F. ) ;
#77 = EDGE_LOOP ( 'NONE', ( #79 ) ) ;
#78 = CIRCLE ( 'NONE', #73, 1.199999999999997513 ) ;
#79 = ORIENTED_EDGE ( 'NONE', *, *, #93, .T. ) ;
#80 = COORDINATED_UNIVERSAL_TIME_OFFSET ( 1, 0, .AHEAD. ) ;
#81 = CARTESIAN_POINT ( 'NONE',  ( 8.789332284292655368E-14, 1.515122862271744924E-14, 25.17364817766693363 ) ) ;
#82 = AXIS2_PLACEMENT_3D ( 'NONE', #92, #1, #230 ) ;
#83 = EDGE_LOOP ( 'NONE', ( #131 ) ) ;
#84 = PERSON_AND_ORGANIZATION ( #195, #252 ) ;
#85 = ORIENTED_EDGE ( 'NONE', *, *, #129, .F. ) ;
#86 = APPROVAL_ROLE ( '' ) ;
#87 = AXIS2_PLACEMENT_3D ( 'NONE', #38, #192, #18 ) ;
#88 = CC_DESIGN_APPROVAL ( #271, ( #5 ) ) ;
#89 = DIRECTION ( 'NONE',  ( -1.847032269076790225E-30, 1.000000000000000000, -5.290110671732203817E-16 ) ) ;
#90 = FACE_OUTER_BOUND ( 'NONE', #149, .T. ) ;
#91 = DIRECTION ( 'NONE',  ( -1.793350131122136896E-30, 1.000000000000000000, -5.408391282767735719E-16 ) ) ;
#92 = CARTESIAN_POINT ( 'NONE',  ( 0.0000000000000000000, 0.0000000000000000000, 0.0000000000000000000 ) ) ;
#93 = EDGE_CURVE ( 'NONE', #165, #165, #39, .T. ) ;
#94 = CARTESIAN_POINT ( 'NONE',  ( 2.444036937190193601E-13, -7.347880794884121511E-15, 70.00000000000000000 ) ) ;
#95 = VERTEX_POINT ( 'NONE', #145 ) ;
#96 = ADVANCED_FACE ( 'NONE', ( #207, #297 ), #301, .T. ) ;
#97 = ORIENTED_EDGE ( 'NONE', *, *, #154, .T. ) ;
#98 = APPROVAL_PERSON_ORGANIZATION ( #6, #271, #59 ) ;
#99 = CALENDAR_DATE ( 2021, 26, 11 ) ;
#100 = EDGE_LOOP ( 'NONE', ( #123 ) ) ;
#101 = FACE_OUTER_BOUND ( 'NONE', #173, .T. ) ;
#102 = APPROVAL_ROLE ( '' ) ;
#103 = LOCAL_TIME ( 14, 11, 0.0000000000000000000, #155 ) ;
#104 = FACE_OUTER_BOUND ( 'NONE', #261, .T. ) ;
#105 = EDGE_CURVE ( 'NONE', #283, #283, #209, .T. ) ;
#106 = PRODUCT_RELATED_PRODUCT_CATEGORY ( 'detail', '', ( #185 ) ) ;
#107 = DIRECTION ( 'NONE',  ( 0.0000000000000000000, -1.000000000000000000, 0.0000000000000000000 ) ) ;
#108 = CARTESIAN_POINT ( 'NONE',  ( 3.867328682802432381E-14, -1.162693972560740357E-15, 11.07646957690409018 ) ) ;
#109 = AXIS2_PLACEMENT_3D ( 'NONE', #81, #265, #182 ) ;
#110 = DIRECTION ( 'NONE',  ( -3.491481338843133355E-15, 1.049697256412017316E-16, -1.000000000000000000 ) ) ;
#111 = ADVANCED_FACE ( 'NONE', ( #68 ), #212, .T. ) ;
#112 = DIRECTION ( 'NONE',  ( -3.491481338843133355E-15, 1.049697256412017316E-16, -1.000000000000000000 ) ) ;
#113 = CARTESIAN_POINT ( 'NONE',  ( 8.789332284292655368E-14, -1.415192246987760694, 25.17364817766693363 ) ) ;
#114 = DIRECTION ( 'NONE',  ( -3.491481338843133355E-15, -5.290110671732203817E-16, -1.000000000000000000 ) ) ;
#115 = AXIS2_PLACEMENT_3D ( 'NONE', #130, #13, #107 ) ;
#116 = CYLINDRICAL_SURFACE ( 'NONE', #82, 1.499999999999995337 ) ;
#117 = UNCERTAINTY_MEASURE_WITH_UNIT (LENGTH_MEASURE( 1.000000000000000082E-05 ), #237, 'distance_accuracy_value', 'NONE');
#118 = ORIENTED_EDGE ( 'NONE', *, *, #288, .F. ) ;
#119 = APPROVAL ( #291, 'UNSPECIFIED' ) ;
#120 = ORIENTED_EDGE ( 'NONE', *, *, #189, .F. ) ;
#121 = AXIS2_PLACEMENT_3D ( 'NONE', #58, #272, #126 ) ;
#122 = APPROVAL_DATE_TIME ( #181, #271 ) ;
#123 = ORIENTED_EDGE ( 'NONE', *, *, #202, .T. ) ;
#124 = DATE_TIME_ROLE ( 'creation_date' ) ;
#125 = ADVANCED_FACE ( 'NONE', ( #90 ), #43, .T. ) ;
#126 = DIRECTION ( 'NONE',  ( -3.664998382197393967E-31, -1.000000000000000000, -1.049697256412017316E-16 ) ) ;
#127 = APPROVAL_STATUS ( 'not_yet_approved' ) ;
#128 = CLOSED_SHELL ( 'NONE', ( #20, #57, #236, #111 ) ) ;
#129 = EDGE_CURVE ( 'NONE', #255, #255, #147, .T. ) ;
#130 = CARTESIAN_POINT ( 'NONE',  ( 8.728703347107833388E-14, 1.504671523549675690E-14, 25.00000000000000000 ) ) ;
#131 = ORIENTED_EDGE ( 'NONE', *, *, #129, .T. ) ;
#132 = FACE_OUTER_BOUND ( 'NONE', #180, .T. ) ;
#133 = CC_DESIGN_PERSON_AND_ORGANIZATION_ASSIGNMENT ( #54, #292, ( #260 ) ) ;
#134 = AXIS2_PLACEMENT_3D ( 'NONE', #163, #19, #89 ) ;
#135 = VERTEX_POINT ( 'NONE', #113 ) ;
#136 = DIRECTION ( 'NONE',  ( 3.491481338843133355E-15, 5.290110671732203817E-16, 1.000000000000000000 ) ) ;
#137 = DIRECTION ( 'NONE',  ( 0.0000000000000000000, 1.000000000000000000, 0.0000000000000000000 ) ) ;
#138 = CARTESIAN_POINT ( 'NONE',  ( 8.957261597119120321E-14, 1.544070856599329525E-14, 25.65461684548776233 ) ) ;
#139 = CIRCLE ( 'NONE', #109, 1.415192246987776015 ) ;
#140 = CC_DESIGN_APPROVAL ( #119, ( #260 ) ) ;
#141 =( NAMED_UNIT ( * ) SI_UNIT ( $, .STERADIAN. ) SOLID_ANGLE_UNIT ( ) );
#142 = DIRECTION ( 'NONE',  ( 1.000000000000000000, 0.0000000000000000000, 0.0000000000000000000 ) ) ;
#143 = ORIENTED_EDGE ( 'NONE', *, *, #154, .F. ) ;
#144 = EDGE_CURVE ( 'NONE', #254, #254, #238, .T. ) ;
#145 = CARTESIAN_POINT ( 'NONE',  ( 2.433562493173664138E-13, 1.499999999999990230, 69.70000000000001705 ) ) ;
#146 = EDGE_LOOP ( 'NONE', ( #76 ) ) ;
#147 = CIRCLE ( 'NONE', #218, 1.503499999999998504 ) ;
#148 = EDGE_CURVE ( 'NONE', #216, #216, #298, .T. ) ;
#149 = EDGE_LOOP ( 'NONE', ( #3 ) ) ;
#150 = SECURITY_CLASSIFICATION_LEVEL ( 'unclassified' ) ;
#151 = CONICAL_SURFACE ( 'NONE', #56, 1.503499999999999837, 0.5235987755983423364 ) ;
#152 = CALENDAR_DATE ( 2021, 26, 11 ) ;
#153 = EDGE_LOOP ( 'NONE', ( #239 ) ) ;
#154 = EDGE_CURVE ( 'NONE', #171, #171, #62, .T. ) ;
#155 = COORDINATED_UNIVERSAL_TIME_OFFSET ( 1, 0, .AHEAD. ) ;
#156 = EDGE_LOOP ( 'NONE', ( #275 ) ) ;
#157 = CARTESIAN_POINT ( 'NONE',  ( 0.0000000000000000000, 0.0000000000000000000, 0.0000000000000000000 ) ) ;
#158 = AXIS2_PLACEMENT_3D ( 'NONE', #161, #281, #250 ) ;
#159 = CYLINDRICAL_SURFACE ( 'NONE', #4, 1.503499999999995618 ) ;
#160 = CARTESIAN_POINT ( 'NONE',  ( 0.0000000000000000000, 0.0000000000000000000, 0.0000000000000000000 ) ) ;
#161 = CARTESIAN_POINT ( 'NONE',  ( 8.728703347107833388E-14, 1.517883041479706208E-14, 25.00000000000000000 ) ) ;
#162 = AXIS2_PLACEMENT_3D ( 'NONE', #257, #47, #142 ) ;
#163 = CARTESIAN_POINT ( 'NONE',  ( -1.349845227378458023E-30, 1.359162432702592627, -3.866110388050119994E-16 ) ) ;
#164 = DIRECTION ( 'NONE',  ( -3.491481338843133355E-15, 1.049697256412017316E-16, -1.000000000000000000 ) ) ;
#165 = VERTEX_POINT ( 'NONE', #228 ) ;
#166 = PERSON_AND_ORGANIZATION_ROLE ( 'design_owner' ) ;
#167 = FACE_OUTER_BOUND ( 'NONE', #77, .T. ) ;
#168 = LOCAL_TIME ( 14, 11, 0.0000000000000000000, #31 ) ;
#169 = DESIGN_CONTEXT ( 'detailed design', #52, 'design' ) ;
#170 = EDGE_LOOP ( 'NONE', ( #289 ) ) ;
#171 = VERTEX_POINT ( 'NONE', #25 ) ;
#172 = EDGE_LOOP ( 'NONE', ( #48 ) ) ;
#173 = EDGE_LOOP ( 'NONE', ( #85 ) ) ;
#174 = AXIS2_PLACEMENT_3D ( 'NONE', #63, #33, #225 ) ;
#175 = APPROVAL_DATE_TIME ( #206, #303 ) ;
#176 = PERSON_AND_ORGANIZATION ( #195, #252 ) ;
#177 = EDGE_LOOP ( 'NONE', ( #97 ) ) ;
#178 = EDGE_LOOP ( 'NONE', ( #286 ) ) ;
#179 = PERSON_AND_ORGANIZATION ( #195, #252 ) ;
#180 = EDGE_LOOP ( 'NONE', ( #66 ) ) ;
#181 = DATE_AND_TIME ( #99, #277 ) ;
#182 = DIRECTION ( 'NONE',  ( 0.0000000000000000000, -1.000000000000000000, 0.0000000000000000000 ) ) ;
#183 = AXIS2_PLACEMENT_3D ( 'NONE', #246, #9, #268 ) ;
#184 = CC_DESIGN_SECURITY_CLASSIFICATION ( #5, ( #260 ) ) ;
#185 = PRODUCT ( '321204', '321204', '', ( #23 ) ) ;
#186 = ORIENTED_EDGE ( 'NONE', *, *, #202, .F. ) ;
#187 = DIRECTION ( 'NONE',  ( 1.847032269076790225E-30, -1.000000000000000000, 5.290110671732202831E-16 ) ) ;
#188 = CARTESIAN_POINT ( 'NONE',  ( 8.728703347107860998E-16, 1.322527667933055145E-16, 0.2500000000000007772 ) ) ;
#189 = EDGE_CURVE ( 'NONE', #75, #75, #294, .T. ) ;
#190 = AXIS2_PLACEMENT_3D ( 'NONE', #16, #67, #285 ) ;
#191 = FACE_OUTER_BOUND ( 'NONE', #177, .T. ) ;
#192 = DIRECTION ( 'NONE',  ( -3.491481338843133355E-15, 1.049697256412017316E-16, -1.000000000000000000 ) ) ;
#193 = FACE_OUTER_BOUND ( 'NONE', #170, .T. ) ;
#194 = AXIS2_PLACEMENT_3D ( 'NONE', #160, #32, #249 ) ;
#195 = PERSON ( 'UNSPECIFIED', 'UNSPECIFIED', 'UNSPECIFIED', ('UNSPECIFIED'), ('UNSPECIFIED'), ('UNSPECIFIED') ) ;
#196 =( NAMED_UNIT ( * ) PLANE_ANGLE_UNIT ( ) SI_UNIT ( $, .RADIAN. ) );
#197 = ORIENTED_EDGE ( 'NONE', *, *, #144, .F. ) ;
#198 = CC_DESIGN_PERSON_AND_ORGANIZATION_ASSIGNMENT ( #214, #166, ( #185 ) ) ;
#199 = PERSON_AND_ORGANIZATION ( #195, #252 ) ;
#200 = ORIENTED_EDGE ( 'NONE', *, *, #53, .F. ) ;
#201 = APPROVAL_DATE_TIME ( #245, #119 ) ;
#202 = EDGE_CURVE ( 'NONE', #2, #2, #78, .T. ) ;
#203 = DIRECTION ( 'NONE',  ( -1.847032269076790225E-30, 1.000000000000000000, -5.290110671732204803E-16 ) ) ;
#204 = LOCAL_TIME ( 14, 11, 0.0000000000000000000, #80 ) ;
#205 = FACE_OUTER_BOUND ( 'NONE', #156, .T. ) ;
#206 = DATE_AND_TIME ( #220, #204 ) ;
#207 = FACE_BOUND ( 'NONE', #100, .T. ) ;
#208 = DIRECTION ( 'NONE',  ( 0.0000000000000000000, 1.000000000000000000, 0.0000000000000000000 ) ) ;
#209 = CIRCLE ( 'NONE', #65, 1.503499999999999837 ) ;
#210 = DIRECTION ( 'NONE',  ( 0.0000000000000000000, -1.000000000000000000, 0.0000000000000000000 ) ) ;
#211 = CARTESIAN_POINT ( 'NONE',  ( 3.867328682802432381E-14, -1.162693972560740357E-15, 11.07646957690409018 ) ) ;
#212 = PLANE ( 'NONE',  #134 ) ;
#213 = FACE_BOUND ( 'NONE', #258, .T. ) ;
#214 = PERSON_AND_ORGANIZATION ( #195, #252 ) ;
#215 = DIRECTION ( 'NONE',  ( -1.847032269076790225E-30, 1.000000000000000000, -5.290110671732202831E-16 ) ) ;
#216 = VERTEX_POINT ( 'NONE', #287 ) ;
#217 = CONICAL_SURFACE ( 'NONE', #248, 1.359162432702592627, 0.5235987755982970393 ) ;
#218 = AXIS2_PLACEMENT_3D ( 'NONE', #188, #114, #91 ) ;
#219 = LOCAL_TIME ( 14, 11, 0.0000000000000000000, #221 ) ;
#220 = CALENDAR_DATE ( 2021, 26, 11 ) ;
#221 = COORDINATED_UNIVERSAL_TIME_OFFSET ( 1, 0, .AHEAD. ) ;
#222 = DIRECTION ( 'NONE',  ( -3.491481338843133355E-15, -5.290110671732203817E-16, -1.000000000000000000 ) ) ;
#223 = CALENDAR_DATE ( 2021, 26, 11 ) ;
#224 = PLANE ( 'NONE',  #183 ) ;
#225 = DIRECTION ( 'NONE',  ( 0.0000000000000000000, -1.000000000000000000, 0.0000000000000000000 ) ) ;
#226 = CARTESIAN_POINT ( 'NONE',  ( 2.321143289480283468E-30, 3.516875416085654143E-31, 6.648018603614735553E-16 ) ) ;
#227 = AXIS2_PLACEMENT_3D ( 'NONE', #226, #72, #215 ) ;
#228 = CARTESIAN_POINT ( 'NONE',  ( 8.728703347107833388E-14, -1.399999999999965938, 25.00000000000000000 ) ) ;
#229 = CC_DESIGN_DATE_AND_TIME_ASSIGNMENT ( #262, #124, ( #273 ) ) ;
#230 = DIRECTION ( 'NONE',  ( 3.664998382197393967E-31, 1.000000000000000000, 1.049697256412017316E-16 ) ) ;
#231 = APPLICATION_CONTEXT ( 'configuration controlled 3d designs of mechanical parts and assemblies' ) ;
#232 = CARTESIAN_POINT ( 'NONE',  ( 3.867328682802433012E-14, 1.503499999999998726, 11.07646957690409195 ) ) ;
#233 =( GEOMETRIC_REPRESENTATION_CONTEXT ( 3 ) GLOBAL_UNCERTAINTY_ASSIGNED_CONTEXT ( ( #117 ) ) GLOBAL_UNIT_ASSIGNED_CONTEXT ( ( #237, #196, #141 ) ) REPRESENTATION_CONTEXT ( 'NONE', 'WORKASPACE' ) );
#234 = DIRECTION ( 'NONE',  ( 3.491481338843133355E-15, 6.018686094198702209E-16, 1.000000000000000000 ) ) ;
#235 = APPLICATION_PROTOCOL_DEFINITION ( 'international standard', 'config_control_design', 1994, #231 ) ;
#236 = ADVANCED_FACE ( 'NONE', ( #284, #213 ), #217, .T. ) ;
#237 =( LENGTH_UNIT ( ) NAMED_UNIT ( * ) SI_UNIT ( .MILLI., .METRE. ) );
#238 = CIRCLE ( 'NONE', #227, 1.359162432702592627 ) ;
#239 = ORIENTED_EDGE ( 'NONE', *, *, #144, .T. ) ;
#240 = MANIFOLD_SOLID_BREP ( 'Corps-Déplacer/Copier1[1]', #276 ) ;
#241 = DATE_TIME_ROLE ( 'classification_date' ) ;
#242 = EDGE_LOOP ( 'NONE', ( #143 ) ) ;
#243 = TOROIDAL_SURFACE ( 'NONE', #158, 2.399999999999977263, 0.9999999999999965583 ) ;
#244 = COORDINATED_UNIVERSAL_TIME_OFFSET ( 1, 0, .AHEAD. ) ;
#245 = DATE_AND_TIME ( #152, #219 ) ;
#246 = CARTESIAN_POINT ( 'NONE',  ( 3.867328682802433012E-14, 5.859574991389742336E-15, 11.07646957690409195 ) ) ;
#247 = FACE_BOUND ( 'NONE', #178, .T. ) ;
#248 = AXIS2_PLACEMENT_3D ( 'NONE', #302, #136, #187 ) ;
#249 = DIRECTION ( 'NONE',  ( 2.101413018224943268E-30, -1.000000000000000000, 6.018686094198702209E-16 ) ) ;
#250 = DIRECTION ( 'NONE',  ( 2.163896063879671835E-30, -1.000000000000000000, 6.018686094198701223E-16 ) ) ;
#251 = ADVANCED_FACE ( 'NONE', ( #167, #279 ), #243, .F. ) ;
#252 = ORGANIZATION ( 'UNSPECIFIED', 'UNSPECIFIED', '' ) ;
#253 = DIRECTION ( 'NONE',  ( 0.0000000000000000000, 1.000000000000000000, 0.0000000000000000000 ) ) ;
#254 = VERTEX_POINT ( 'NONE', #41 ) ;
#255 = VERTEX_POINT ( 'NONE', #70 ) ;
#256 = CARTESIAN_POINT ( 'NONE',  ( 2.433562493173664138E-13, -7.316389877191761450E-15, 69.70000000000001705 ) ) ;
#257 = CARTESIAN_POINT ( 'NONE',  ( 0.0000000000000000000, 0.0000000000000000000, 0.0000000000000000000 ) ) ;
#258 = EDGE_LOOP ( 'NONE', ( #197 ) ) ;
#259 = CARTESIAN_POINT ( 'NONE',  ( 2.444036937190193601E-13, 1.199999999999990186, 70.00000000000000000 ) ) ;
#260 = PRODUCT_DEFINITION_FORMATION_WITH_SPECIFIED_SOURCE ( 'ANY', '', #185, .NOT_KNOWN. ) ;
#261 = EDGE_LOOP ( 'NONE', ( #186 ) ) ;
#262 = DATE_AND_TIME ( #223, #103 ) ;
#263 = CC_DESIGN_PERSON_AND_ORGANIZATION_ASSIGNMENT ( #179, #10, ( #260 ) ) ;
#264 = APPROVAL_STATUS ( 'not_yet_approved' ) ;
#265 = DIRECTION ( 'NONE',  ( 3.491481338843133355E-15, 6.018686094198702209E-16, 1.000000000000000000 ) ) ;
#266 = AXIS2_PLACEMENT_3D ( 'NONE', #40, #21, #71 ) ;
#267 = PERSON_AND_ORGANIZATION_ROLE ( 'creator' ) ;
#268 = DIRECTION ( 'NONE',  ( 1.847032269076790225E-30, -1.000000000000000000, 5.290110671732203817E-16 ) ) ;
#269 = ADVANCED_FACE ( 'NONE', ( #193, #191 ), #116, .T. ) ;
#270 = PERSON_AND_ORGANIZATION_ROLE ( 'classification_officer' ) ;
#271 = APPROVAL ( #264, 'UNSPECIFIED' ) ;
#272 = DIRECTION ( 'NONE',  ( 3.491481338843133355E-15, -1.049697256412017316E-16, 1.000000000000000000 ) ) ;
#273 = PRODUCT_DEFINITION ( 'UNKNOWN', '', #260, #169 ) ;
#274 = APPLICATION_PROTOCOL_DEFINITION ( 'international standard', 'config_control_design', 1994, #52 ) ;
#275 = ORIENTED_EDGE ( 'NONE', *, *, #93, .F. ) ;
#276 = CLOSED_SHELL ( 'NONE', ( #269, #36, #96, #61, #251, #49, #125, #26 ) ) ;
#277 = LOCAL_TIME ( 14, 11, 0.0000000000000000000, #244 ) ;
#278 = PLANE ( 'NONE',  #121 ) ;
#279 = FACE_OUTER_BOUND ( 'NONE', #296, .T. ) ;
#280 = PRODUCT_DEFINITION_SHAPE ( 'NONE', 'NONE',  #273 ) ;
#281 = DIRECTION ( 'NONE',  ( 3.491481338843133355E-15, 6.018686094198702209E-16, 1.000000000000000000 ) ) ;
#282 = APPROVAL_PERSON_ORGANIZATION ( #199, #119, #86 ) ;
#283 = VERTEX_POINT ( 'NONE', #45 ) ;
#284 = FACE_OUTER_BOUND ( 'NONE', #83, .T. ) ;
#285 = DIRECTION ( 'NONE',  ( 0.0000000000000000000, 1.000000000000000000, 0.0000000000000000000 ) ) ;
#286 = ORIENTED_EDGE ( 'NONE', *, *, #53, .T. ) ;
#287 = CARTESIAN_POINT ( 'NONE',  ( 3.867328682802432381E-14, 1.503499999999998726, 11.07646957690409018 ) ) ;
#288 = EDGE_CURVE ( 'NONE', #95, #95, #50, .T. ) ;
#289 = ORIENTED_EDGE ( 'NONE', *, *, #288, .T. ) ;
#290 = CONICAL_SURFACE ( 'NONE', #174, 2.124999999999982236, 0.1745329251994328645 ) ;
#291 = APPROVAL_STATUS ( 'not_yet_approved' ) ;
#292 = PERSON_AND_ORGANIZATION_ROLE ( 'design_supplier' ) ;
#293 = CYLINDRICAL_SURFACE ( 'NONE', #194, 1.399999999999987255 ) ;
#294 = CIRCLE ( 'NONE', #266, 1.399999999999993472 ) ;
#295 = SHAPE_DEFINITION_REPRESENTATION ( #280, #8 ) ;
#296 = EDGE_LOOP ( 'NONE', ( #200 ) ) ;
#297 = FACE_OUTER_BOUND ( 'NONE', #55, .T. ) ;
#298 = CIRCLE ( 'NONE', #190, 1.503499999999992953 ) ;
#299 = DIRECTION ( 'NONE',  ( 0.0000000000000000000, 1.000000000000000000, 0.0000000000000000000 ) ) ;
#300 = DIRECTION ( 'NONE',  ( -3.491481338843133355E-15, 1.049697256412017316E-16, -1.000000000000000000 ) ) ;
#301 = CONICAL_SURFACE ( 'NONE', #34, 1.499999999999997558, 0.7853981633974573828 ) ;
#302 = CARTESIAN_POINT ( 'NONE',  ( 2.321143289480283468E-30, 3.516875416085654143E-31, 6.648018603614735553E-16 ) ) ;
#303 = APPROVAL ( #127, 'UNSPECIFIED' ) ;
ENDSEC;
END-ISO-10303-21;
