ISO-10303-21;
HEADER;
FILE_DESCRIPTION (( 'STEP AP203' ),
    '1' );
FILE_NAME ('321203.step',
    '2021-11-26T13:10:59',
    ( '' ),
    ( '' ),
    'SwSTEP 2.0',
    'SolidWorks 2019',
    '' );
FILE_SCHEMA (( 'CONFIG_CONTROL_DESIGN' ));
ENDSEC;

DATA;
#1 = DIRECTION ( 'NONE',  ( -1.844921177341097893E-30, 1.000000000000000000, -5.284064264689422247E-16 ) ) ;
#2 = CC_DESIGN_APPROVAL ( #199, ( #27 ) ) ;
#3 = FACE_OUTER_BOUND ( 'NONE', #234, .T. ) ;
#4 = CARTESIAN_POINT ( 'NONE',  ( 2.444036937190193601E-13, -7.347880794884121511E-15, 70.00000000000000000 ) ) ;
#5 = EDGE_LOOP ( 'NONE', ( #62 ) ) ;
#6 = CONICAL_SURFACE ( 'NONE', #169, 2.124999999999982236, 0.1745329251994328645 ) ;
#7 = PLANE ( 'NONE',  #90 ) ;
#8 = CYLINDRICAL_SURFACE ( 'NONE', #249, 1.499999999999995337 ) ;
#9 = DIRECTION ( 'NONE',  ( 3.491481338843133355E-15, 6.018686094198702209E-16, 1.000000000000000000 ) ) ;
#10 = CLOSED_SHELL ( 'NONE', ( #229, #206, #294, #181, #125, #296, #79, #167 ) ) ;
#11 = LOCAL_TIME ( 14, 10, 59.00000000000000000, #297 ) ;
#12 = CARTESIAN_POINT ( 'NONE',  ( 8.728703347107833388E-14, -1.399999999999965938, 25.00000000000000000 ) ) ;
#13 = PERSON_AND_ORGANIZATION_ROLE ( 'classification_officer' ) ;
#14 = ORIENTED_EDGE ( 'NONE', *, *, #123, .F. ) ;
#15 = APPROVAL_PERSON_ORGANIZATION ( #83, #267, #149 ) ;
#16 = DATE_AND_TIME ( #240, #11 ) ;
#17 = EDGE_LOOP ( 'NONE', ( #178 ) ) ;
#18 = DATE_AND_TIME ( #41, #145 ) ;
#19 = AXIS2_PLACEMENT_3D ( 'NONE', #4, #71, #43 ) ;
#20 = PRODUCT_DEFINITION ( 'UNKNOWN', '', #128, #132 ) ;
#21 = AXIS2_PLACEMENT_3D ( 'NONE', #180, #50, #112 ) ;
#22 = DIRECTION ( 'NONE',  ( -3.491481338843133355E-15, -6.018686094198702209E-16, -1.000000000000000000 ) ) ;
#23 = CARTESIAN_POINT ( 'NONE',  ( 8.728703347107860998E-16, 1.321016066172359506E-16, 0.2500000000000007772 ) ) ;
#24 = ORIENTED_EDGE ( 'NONE', *, *, #123, .T. ) ;
#25 = FACE_OUTER_BOUND ( 'NONE', #291, .T. ) ;
#26 = DIRECTION ( 'NONE',  ( 3.491481338843133355E-15, 6.018686094198702209E-16, 1.000000000000000000 ) ) ;
#27 = SECURITY_CLASSIFICATION ( '', '', #35 ) ;
#28 = DIRECTION ( 'NONE',  ( 3.491481338843133355E-15, 6.018686094198702209E-16, 1.000000000000000000 ) ) ;
#29 = CARTESIAN_POINT ( 'NONE',  ( 2.444036937190193601E-13, 1.199999999999990186, 70.00000000000000000 ) ) ;
#30 = CARTESIAN_POINT ( 'NONE',  ( 0.0000000000000000000, 0.0000000000000000000, 0.0000000000000000000 ) ) ;
#31 = CC_DESIGN_APPROVAL ( #267, ( #20 ) ) ;
#32 = CARTESIAN_POINT ( 'NONE',  ( 8.728703347107833388E-16, 1.498499999999998833, 0.2499999999999999445 ) ) ;
#33 = CC_DESIGN_DATE_AND_TIME_ASSIGNMENT ( #101, #151, ( #27 ) ) ;
#34 = PERSON_AND_ORGANIZATION_ROLE ( 'design_owner' ) ;
#35 = SECURITY_CLASSIFICATION_LEVEL ( 'unclassified' ) ;
#36 = ORIENTED_EDGE ( 'NONE', *, *, #230, .T. ) ;
#37 = EDGE_CURVE ( 'NONE', #292, #292, #259, .T. ) ;
#38 = FACE_OUTER_BOUND ( 'NONE', #153, .T. ) ;
#39 = CIRCLE ( 'NONE', #277, 1.399999999999993472 ) ;
#40 = ADVANCED_FACE ( 'NONE', ( #38 ), #174, .T. ) ;
#41 = CALENDAR_DATE ( 2021, 26, 11 ) ;
#42 = EDGE_LOOP ( 'NONE', ( #24 ) ) ;
#43 = DIRECTION ( 'NONE',  ( -3.664998382197393967E-31, -1.000000000000000000, -1.049697256412017316E-16 ) ) ;
#44 = EDGE_LOOP ( 'NONE', ( #284 ) ) ;
#45 = DIRECTION ( 'NONE',  ( 3.664998382197393967E-31, 1.000000000000000000, 1.049697256412017316E-16 ) ) ;
#46 = CARTESIAN_POINT ( 'NONE',  ( 8.789332284292655368E-14, 1.515122862271744924E-14, 25.17364817766693363 ) ) ;
#47 = FACE_BOUND ( 'NONE', #280, .T. ) ;
#48 = DIRECTION ( 'NONE',  ( 3.491481338843133355E-15, 6.018686094198702209E-16, 1.000000000000000000 ) ) ;
#49 = ORIENTED_EDGE ( 'NONE', *, *, #264, .T. ) ;
#50 = DIRECTION ( 'NONE',  ( -3.491481338843133355E-15, -5.284064264689422247E-16, -1.000000000000000000 ) ) ;
#51 = VERTEX_POINT ( 'NONE', #29 ) ;
#52 = CARTESIAN_POINT ( 'NONE',  ( 3.870352394338709885E-14, 1.498499999999998833, 11.08512983094193416 ) ) ;
#53 = CC_DESIGN_PERSON_AND_ORGANIZATION_ASSIGNMENT ( #126, #147, ( #128 ) ) ;
#54 = CARTESIAN_POINT ( 'NONE',  ( 2.433562493173664138E-13, -7.316389877191761450E-15, 69.70000000000001705 ) ) ;
#55 = APPROVAL_PERSON_ORGANIZATION ( #221, #159, #56 ) ;
#56 = APPROVAL_ROLE ( '' ) ;
#57 = CARTESIAN_POINT ( 'NONE',  ( 3.929919511603369589E-14, -1.399999999999986811, 11.25573683548745052 ) ) ;
#58 = PERSON_AND_ORGANIZATION_ROLE ( 'creator' ) ;
#59 = EDGE_CURVE ( 'NONE', #166, #166, #61, .T. ) ;
#60 = CALENDAR_DATE ( 2021, 26, 11 ) ;
#61 = CIRCLE ( 'NONE', #253, 1.354162432702592733 ) ;
#62 = ORIENTED_EDGE ( 'NONE', *, *, #143, .T. ) ;
#63 = DIRECTION ( 'NONE',  ( 0.0000000000000000000, -1.000000000000000000, 0.0000000000000000000 ) ) ;
#64 = AXIS2_PLACEMENT_3D ( 'NONE', #54, #270, #241 ) ;
#65 = CARTESIAN_POINT ( 'NONE',  ( 3.929919511603369589E-14, 6.774474677170842422E-15, 11.25573683548745052 ) ) ;
#66 = EDGE_LOOP ( 'NONE', ( #106 ) ) ;
#67 = ORIENTED_EDGE ( 'NONE', *, *, #230, .F. ) ;
#68 = ADVANCED_FACE ( 'NONE', ( #204 ), #129, .T. ) ;
#69 = DIRECTION ( 'NONE',  ( 0.0000000000000000000, 1.000000000000000000, 0.0000000000000000000 ) ) ;
#70 = EDGE_CURVE ( 'NONE', #216, #216, #232, .T. ) ;
#71 = DIRECTION ( 'NONE',  ( 3.491481338843133355E-15, -1.049697256412017316E-16, 1.000000000000000000 ) ) ;
#72 =( GEOMETRIC_REPRESENTATION_CONTEXT ( 3 ) GLOBAL_UNCERTAINTY_ASSIGNED_CONTEXT ( ( #246 ) ) GLOBAL_UNIT_ASSIGNED_CONTEXT ( ( #215, #82, #293 ) ) REPRESENTATION_CONTEXT ( 'NONE', 'WORKASPACE' ) );
#73 = FACE_OUTER_BOUND ( 'NONE', #66, .T. ) ;
#74 = CC_DESIGN_PERSON_AND_ORGANIZATION_ASSIGNMENT ( #203, #34, ( #158 ) ) ;
#75 = DIRECTION ( 'NONE',  ( 2.101413018224943268E-30, -1.000000000000000000, 6.018686094198702209E-16 ) ) ;
#76 = MANIFOLD_SOLID_BREP ( 'Corps-Déplacer/Copier1[1]', #10 ) ;
#77 = FACE_OUTER_BOUND ( 'NONE', #192, .T. ) ;
#78 = TOROIDAL_SURFACE ( 'NONE', #268, 2.399999999999977263, 0.9999999999999965583 ) ;
#79 = ADVANCED_FACE ( 'NONE', ( #73, #141 ), #210, .T. ) ;
#80 = CIRCLE ( 'NONE', #224, 1.498499999999998611 ) ;
#81 = PERSON_AND_ORGANIZATION ( #120, #146 ) ;
#82 =( NAMED_UNIT ( * ) PLANE_ANGLE_UNIT ( ) SI_UNIT ( $, .RADIAN. ) );
#83 = PERSON_AND_ORGANIZATION ( #120, #146 ) ;
#84 = ORIENTED_EDGE ( 'NONE', *, *, #143, .F. ) ;
#85 = COORDINATED_UNIVERSAL_TIME_OFFSET ( 1, 0, .AHEAD. ) ;
#86 = CC_DESIGN_PERSON_AND_ORGANIZATION_ASSIGNMENT ( #271, #13, ( #27 ) ) ;
#87 = CARTESIAN_POINT ( 'NONE',  ( 0.0000000000000000000, 0.0000000000000000000, 0.0000000000000000000 ) ) ;
#88 = CLOSED_SHELL ( 'NONE', ( #40, #220, #135, #68 ) ) ;
#89 = FACE_OUTER_BOUND ( 'NONE', #302, .T. ) ;
#90 = AXIS2_PLACEMENT_3D ( 'NONE', #233, #283, #191 ) ;
#91 = DIRECTION ( 'NONE',  ( 0.0000000000000000000, -1.000000000000000000, 0.0000000000000000000 ) ) ;
#92 = ORIENTED_EDGE ( 'NONE', *, *, #59, .F. ) ;
#93 = FACE_OUTER_BOUND ( 'NONE', #282, .T. ) ;
#94 = CARTESIAN_POINT ( 'NONE',  ( 0.0000000000000000000, 0.0000000000000000000, 0.0000000000000000000 ) ) ;
#95 = CIRCLE ( 'NONE', #298, 1.498499999999992838 ) ;
#96 = FACE_OUTER_BOUND ( 'NONE', #160, .T. ) ;
#97 = CIRCLE ( 'NONE', #118, 1.415192246987776015 ) ;
#98 = ADVANCED_BREP_SHAPE_REPRESENTATION ( '321203', ( #76, #287, #108 ), #72 ) ;
#99 = CARTESIAN_POINT ( 'NONE',  ( 2.433562493173664138E-13, 1.499999999999990230, 69.70000000000001705 ) ) ;
#100 = DIRECTION ( 'NONE',  ( 3.491481338843133355E-15, 6.018686094198702209E-16, 1.000000000000000000 ) ) ;
#101 = DATE_AND_TIME ( #107, #278 ) ;
#102 = APPLICATION_PROTOCOL_DEFINITION ( 'international standard', 'config_control_design', 1994, #237 ) ;
#103 = DIRECTION ( 'NONE',  ( -3.491481338843133355E-15, -5.284064264689422247E-16, -1.000000000000000000 ) ) ;
#104 = APPROVAL_STATUS ( 'not_yet_approved' ) ;
#105 = PRODUCT_RELATED_PRODUCT_CATEGORY ( 'detail', '', ( #158 ) ) ;
#106 = ORIENTED_EDGE ( 'NONE', *, *, #197, .F. ) ;
#107 = CALENDAR_DATE ( 2021, 26, 11 ) ;
#108 = AXIS2_PLACEMENT_3D ( 'NONE', #87, #239, #131 ) ;
#109 = CIRCLE ( 'NONE', #113, 1.399999999999980815 ) ;
#110 = ORIENTED_EDGE ( 'NONE', *, *, #70, .F. ) ;
#111 = EDGE_CURVE ( 'NONE', #261, #261, #109, .T. ) ;
#112 = DIRECTION ( 'NONE',  ( -1.844921177341098244E-30, 1.000000000000000000, -5.284064264689422247E-16 ) ) ;
#113 = AXIS2_PLACEMENT_3D ( 'NONE', #260, #28, #91 ) ;
#114 = DIRECTION ( 'NONE',  ( 3.491481338843133355E-15, 5.284064264689422247E-16, 1.000000000000000000 ) ) ;
#115 = FACE_OUTER_BOUND ( 'NONE', #190, .T. ) ;
#116 = DIRECTION ( 'NONE',  ( -3.491481338843133355E-15, 1.049697256412017316E-16, -1.000000000000000000 ) ) ;
#117 = CARTESIAN_POINT ( 'NONE',  ( 8.789332284292655368E-14, -1.415192246987760694, 25.17364817766693363 ) ) ;
#118 = AXIS2_PLACEMENT_3D ( 'NONE', #46, #48, #257 ) ;
#119 = CARTESIAN_POINT ( 'NONE',  ( 3.870352394338709885E-14, 5.857453840912296981E-15, 11.08512983094193416 ) ) ;
#120 = PERSON ( 'UNSPECIFIED', 'UNSPECIFIED', 'UNSPECIFIED', ('UNSPECIFIED'), ('UNSPECIFIED'), ('UNSPECIFIED') ) ;
#121 = EDGE_CURVE ( 'NONE', #51, #51, #164, .T. ) ;
#122 = VERTEX_POINT ( 'NONE', #57 ) ;
#123 = EDGE_CURVE ( 'NONE', #238, #238, #97, .T. ) ;
#124 = AXIS2_PLACEMENT_3D ( 'NONE', #213, #22, #137 ) ;
#125 = ADVANCED_FACE ( 'NONE', ( #89, #208 ), #78, .F. ) ;
#126 = PERSON_AND_ORGANIZATION ( #120, #146 ) ;
#127 = EDGE_LOOP ( 'NONE', ( #84 ) ) ;
#128 = PRODUCT_DEFINITION_FORMATION_WITH_SPECIFIED_SOURCE ( 'ANY', '', #158, .NOT_KNOWN. ) ;
#129 = PLANE ( 'NONE',  #21 ) ;
#130 = CIRCLE ( 'NONE', #289, 1.498499999999984400 ) ;
#131 = DIRECTION ( 'NONE',  ( 1.000000000000000000, 0.0000000000000000000, 0.0000000000000000000 ) ) ;
#132 = DESIGN_CONTEXT ( 'detailed design', #273, 'design' ) ;
#133 = AXIS2_PLACEMENT_3D ( 'NONE', #134, #212, #225 ) ;
#134 = CARTESIAN_POINT ( 'NONE',  ( 0.0000000000000000000, 0.0000000000000000000, 0.0000000000000000000 ) ) ;
#135 = ADVANCED_FACE ( 'NONE', ( #25, #47 ), #154, .T. ) ;
#136 = LOCAL_TIME ( 14, 10, 59.00000000000000000, #182 ) ;
#137 = DIRECTION ( 'NONE',  ( 0.0000000000000000000, 1.000000000000000000, 0.0000000000000000000 ) ) ;
#138 = ORIENTED_EDGE ( 'NONE', *, *, #111, .F. ) ;
#139 = DIRECTION ( 'NONE',  ( 2.163896063879671835E-30, -1.000000000000000000, 6.018686094198701223E-16 ) ) ;
#140 = FACE_OUTER_BOUND ( 'NONE', #44, .T. ) ;
#141 = FACE_BOUND ( 'NONE', #127, .T. ) ;
#142 = DIRECTION ( 'NONE',  ( -3.491481338843133355E-15, -5.284064264689422247E-16, -1.000000000000000000 ) ) ;
#143 = EDGE_CURVE ( 'NONE', #122, #122, #39, .T. ) ;
#144 = FACE_OUTER_BOUND ( 'NONE', #5, .T. ) ;
#145 = LOCAL_TIME ( 14, 10, 59.00000000000000000, #205 ) ;
#146 = ORGANIZATION ( 'UNSPECIFIED', 'UNSPECIFIED', '' ) ;
#147 = PERSON_AND_ORGANIZATION_ROLE ( 'design_supplier' ) ;
#148 = AXIS2_PLACEMENT_3D ( 'NONE', #227, #116, #209 ) ;
#149 = APPROVAL_ROLE ( '' ) ;
#150 = CARTESIAN_POINT ( 'NONE',  ( -1.892735826383164860E-31, 1.354162432702592733, -5.421010862427522170E-17 ) ) ;
#151 = DATE_TIME_ROLE ( 'classification_date' ) ;
#152 = PERSON_AND_ORGANIZATION ( #120, #146 ) ;
#153 = EDGE_LOOP ( 'NONE', ( #194 ) ) ;
#154 = CONICAL_SURFACE ( 'NONE', #214, 1.354162432702592733, 0.5235987755982970393 ) ;
#155 = CARTESIAN_POINT ( 'NONE',  ( 3.870352394338709254E-14, 5.857453840912296192E-15, 11.08512983094193238 ) ) ;
#156 = CARTESIAN_POINT ( 'NONE',  ( 3.870352394338709254E-14, 7.524502633250212060E-15, 11.08512983094193238 ) ) ;
#157 = CARTESIAN_POINT ( 'NONE',  ( 8.957261597119120321E-14, 1.544070856599329525E-14, 25.65461684548776233 ) ) ;
#158 = PRODUCT ( '321203', '321203', '', ( #222 ) ) ;
#159 = APPROVAL ( #200, 'UNSPECIFIED' ) ;
#160 = EDGE_LOOP ( 'NONE', ( #248 ) ) ;
#161 = CYLINDRICAL_SURFACE ( 'NONE', #133, 1.498499999999995724 ) ;
#162 = PLANE ( 'NONE',  #19 ) ;
#163 = DIRECTION ( 'NONE',  ( 0.0000000000000000000, 1.000000000000000000, 0.0000000000000000000 ) ) ;
#164 = CIRCLE ( 'NONE', #148, 1.199999999999997513 ) ;
#165 = CARTESIAN_POINT ( 'NONE',  ( 8.728703347107833388E-14, 1.517883041479706208E-14, 25.00000000000000000 ) ) ;
#166 = VERTEX_POINT ( 'NONE', #150 ) ;
#167 = ADVANCED_FACE ( 'NONE', ( #140 ), #7, .T. ) ;
#168 = CARTESIAN_POINT ( 'NONE',  ( 3.870352394338709254E-14, 1.498499999999991950, 11.08512983094193238 ) ) ;
#169 = AXIS2_PLACEMENT_3D ( 'NONE', #193, #26, #63 ) ;
#170 = PERSON_AND_ORGANIZATION_ROLE ( 'creator' ) ;
#171 = AXIS2_PLACEMENT_3D ( 'NONE', #30, #100, #75 ) ;
#172 = SHAPE_DEFINITION_REPRESENTATION ( #250, #98 ) ;
#173 = AXIS2_PLACEMENT_3D ( 'NONE', #155, #207, #185 ) ;
#174 = PLANE ( 'NONE',  #173 ) ;
#175 = CARTESIAN_POINT ( 'NONE',  ( 8.957261597119120321E-14, -1.499999999999979794, 25.65461684548776233 ) ) ;
#176 = APPROVAL_STATUS ( 'not_yet_approved' ) ;
#177 = CC_DESIGN_APPROVAL ( #159, ( #128 ) ) ;
#178 = ORIENTED_EDGE ( 'NONE', *, *, #37, .T. ) ;
#179 = DATE_TIME_ROLE ( 'creation_date' ) ;
#180 = CARTESIAN_POINT ( 'NONE',  ( -1.343798266145534489E-30, 1.354162432702592733, -3.848791202735708631E-16 ) ) ;
#181 = ADVANCED_FACE ( 'NONE', ( #93, #290 ), #6, .T. ) ;
#182 = COORDINATED_UNIVERSAL_TIME_OFFSET ( 1, 0, .AHEAD. ) ;
#183 = CARTESIAN_POINT ( 'NONE',  ( 2.309049367014436401E-30, 3.494552615792426555E-31, 6.613380232985912828E-16 ) ) ;
#184 = AXIS2_PLACEMENT_3D ( 'NONE', #157, #186, #231 ) ;
#185 = DIRECTION ( 'NONE',  ( 1.844921177341098244E-30, -1.000000000000000000, 5.284064264689422247E-16 ) ) ;
#186 = DIRECTION ( 'NONE',  ( 3.491481338843133355E-15, 6.018686094198702209E-16, 1.000000000000000000 ) ) ;
#187 = ORIENTED_EDGE ( 'NONE', *, *, #59, .T. ) ;
#188 = FACE_OUTER_BOUND ( 'NONE', #255, .T. ) ;
#189 = EDGE_LOOP ( 'NONE', ( #252 ) ) ;
#190 = EDGE_LOOP ( 'NONE', ( #67 ) ) ;
#191 = DIRECTION ( 'NONE',  ( 3.664998382197393967E-31, 1.000000000000000000, 1.049697256412017316E-16 ) ) ;
#192 = EDGE_LOOP ( 'NONE', ( #138 ) ) ;
#193 = CARTESIAN_POINT ( 'NONE',  ( 1.019483501215131844E-13, 1.757406262999419099E-14, 29.19916798274875802 ) ) ;
#194 = ORIENTED_EDGE ( 'NONE', *, *, #264, .F. ) ;
#195 = DIRECTION ( 'NONE',  ( -3.491481338843133355E-15, -5.284064264689422247E-16, -1.000000000000000000 ) ) ;
#196 = FACE_BOUND ( 'NONE', #189, .T. ) ;
#197 = EDGE_CURVE ( 'NONE', #295, #295, #130, .T. ) ;
#198 = DIRECTION ( 'NONE',  ( 0.0000000000000000000, 1.000000000000000000, 0.0000000000000000000 ) ) ;
#199 = APPROVAL ( #104, 'UNSPECIFIED' ) ;
#200 = APPROVAL_STATUS ( 'not_yet_approved' ) ;
#201 = DATE_AND_TIME ( #219, #136 ) ;
#202 = VERTEX_POINT ( 'NONE', #32 ) ;
#203 = PERSON_AND_ORGANIZATION ( #120, #146 ) ;
#204 = FACE_OUTER_BOUND ( 'NONE', #274, .T. ) ;
#205 = COORDINATED_UNIVERSAL_TIME_OFFSET ( 1, 0, .AHEAD. ) ;
#206 = ADVANCED_FACE ( 'NONE', ( #286 ), #162, .T. ) ;
#207 = DIRECTION ( 'NONE',  ( 3.491481338843133355E-15, 5.284064264689422247E-16, 1.000000000000000000 ) ) ;
#208 = FACE_OUTER_BOUND ( 'NONE', #228, .T. ) ;
#209 = DIRECTION ( 'NONE',  ( 0.0000000000000000000, 1.000000000000000000, 0.0000000000000000000 ) ) ;
#210 = CONICAL_SURFACE ( 'NONE', #124, 1.399999999999993472, 0.5235987755982995928 ) ;
#211 = DIRECTION ( 'NONE',  ( 0.0000000000000000000, -1.000000000000000000, 0.0000000000000000000 ) ) ;
#212 = DIRECTION ( 'NONE',  ( -3.491481338843133355E-15, -5.284064264689422247E-16, -1.000000000000000000 ) ) ;
#213 = CARTESIAN_POINT ( 'NONE',  ( 3.929919511603369589E-14, 6.774474677170842422E-15, 11.25573683548745052 ) ) ;
#214 = AXIS2_PLACEMENT_3D ( 'NONE', #281, #114, #235 ) ;
#215 =( LENGTH_UNIT ( ) NAMED_UNIT ( * ) SI_UNIT ( .MILLI., .METRE. ) );
#216 = VERTEX_POINT ( 'NONE', #175 ) ;
#217 = CC_DESIGN_DATE_AND_TIME_ASSIGNMENT ( #201, #179, ( #20 ) ) ;
#218 = VERTEX_POINT ( 'NONE', #52 ) ;
#219 = CALENDAR_DATE ( 2021, 26, 11 ) ;
#220 = ADVANCED_FACE ( 'NONE', ( #3, #115 ), #161, .T. ) ;
#221 = PERSON_AND_ORGANIZATION ( #120, #146 ) ;
#222 = MECHANICAL_CONTEXT ( 'NONE', #237, 'mechanical' ) ;
#223 = CC_DESIGN_PERSON_AND_ORGANIZATION_ASSIGNMENT ( #152, #170, ( #128 ) ) ;
#224 = AXIS2_PLACEMENT_3D ( 'NONE', #23, #195, #263 ) ;
#225 = DIRECTION ( 'NONE',  ( -1.844921177341098244E-30, 1.000000000000000000, -5.284064264689422247E-16 ) ) ;
#226 = EDGE_LOOP ( 'NONE', ( #258 ) ) ;
#227 = CARTESIAN_POINT ( 'NONE',  ( 2.444036937190193601E-13, -7.347880794884121511E-15, 70.00000000000000000 ) ) ;
#228 = EDGE_LOOP ( 'NONE', ( #14 ) ) ;
#229 = ADVANCED_FACE ( 'NONE', ( #256, #188 ), #8, .T. ) ;
#230 = EDGE_CURVE ( 'NONE', #202, #202, #80, .T. ) ;
#231 = DIRECTION ( 'NONE',  ( 0.0000000000000000000, -1.000000000000000000, 0.0000000000000000000 ) ) ;
#232 = CIRCLE ( 'NONE', #184, 1.499999999999995337 ) ;
#233 = CARTESIAN_POINT ( 'NONE',  ( 3.870352394338709254E-14, 1.498499999999998833, 11.08512983094193238 ) ) ;
#234 = EDGE_LOOP ( 'NONE', ( #49 ) ) ;
#235 = DIRECTION ( 'NONE',  ( 1.844921177341098244E-30, -1.000000000000000000, 5.284064264689422247E-16 ) ) ;
#236 = CYLINDRICAL_SURFACE ( 'NONE', #171, 1.399999999999987255 ) ;
#237 = APPLICATION_CONTEXT ( 'configuration controlled 3d designs of mechanical parts and assemblies' ) ;
#238 = VERTEX_POINT ( 'NONE', #117 ) ;
#239 = DIRECTION ( 'NONE',  ( 0.0000000000000000000, 0.0000000000000000000, 1.000000000000000000 ) ) ;
#240 = CALENDAR_DATE ( 2021, 26, 11 ) ;
#241 = DIRECTION ( 'NONE',  ( 0.0000000000000000000, 1.000000000000000000, 0.0000000000000000000 ) ) ;
#242 = COORDINATED_UNIVERSAL_TIME_OFFSET ( 1, 0, .AHEAD. ) ;
#243 = CC_DESIGN_PERSON_AND_ORGANIZATION_ASSIGNMENT ( #303, #58, ( #20 ) ) ;
#244 = APPROVAL_DATE_TIME ( #269, #267 ) ;
#245 = AXIS2_PLACEMENT_3D ( 'NONE', #301, #272, #163 ) ;
#246 = UNCERTAINTY_MEASURE_WITH_UNIT (LENGTH_MEASURE( 1.000000000000000082E-05 ), #215, 'distance_accuracy_value', 'NONE');
#247 = CC_DESIGN_SECURITY_CLASSIFICATION ( #27, ( #128 ) ) ;
#248 = ORIENTED_EDGE ( 'NONE', *, *, #37, .F. ) ;
#249 = AXIS2_PLACEMENT_3D ( 'NONE', #94, #254, #45 ) ;
#250 = PRODUCT_DEFINITION_SHAPE ( 'NONE', 'NONE',  #20 ) ;
#251 = DIRECTION ( 'NONE',  ( -3.491481338843133355E-15, 1.049697256412017316E-16, -1.000000000000000000 ) ) ;
#252 = ORIENTED_EDGE ( 'NONE', *, *, #121, .T. ) ;
#253 = AXIS2_PLACEMENT_3D ( 'NONE', #183, #103, #1 ) ;
#254 = DIRECTION ( 'NONE',  ( -3.491481338843133355E-15, 1.049697256412017316E-16, -1.000000000000000000 ) ) ;
#255 = EDGE_LOOP ( 'NONE', ( #276 ) ) ;
#256 = FACE_OUTER_BOUND ( 'NONE', #17, .T. ) ;
#257 = DIRECTION ( 'NONE',  ( 0.0000000000000000000, -1.000000000000000000, 0.0000000000000000000 ) ) ;
#258 = ORIENTED_EDGE ( 'NONE', *, *, #121, .F. ) ;
#259 = CIRCLE ( 'NONE', #245, 1.499999999999997558 ) ;
#260 = CARTESIAN_POINT ( 'NONE',  ( 8.728703347107833388E-14, 1.504671523549675690E-14, 25.00000000000000000 ) ) ;
#261 = VERTEX_POINT ( 'NONE', #12 ) ;
#262 = LOCAL_TIME ( 14, 10, 59.00000000000000000, #242 ) ;
#263 = DIRECTION ( 'NONE',  ( -1.799333948710132102E-30, 1.000000000000000000, -5.426437299727254271E-16 ) ) ;
#264 = EDGE_CURVE ( 'NONE', #218, #218, #95, .T. ) ;
#265 = CONICAL_SURFACE ( 'NONE', #64, 1.499999999999997558, 0.7853981633974573828 ) ;
#266 = APPROVAL_DATE_TIME ( #18, #199 ) ;
#267 = APPROVAL ( #176, 'UNSPECIFIED' ) ;
#268 = AXIS2_PLACEMENT_3D ( 'NONE', #165, #9, #139 ) ;
#269 = DATE_AND_TIME ( #60, #262 ) ;
#270 = DIRECTION ( 'NONE',  ( -3.491481338843133355E-15, 1.049697256412017316E-16, -1.000000000000000000 ) ) ;
#271 = PERSON_AND_ORGANIZATION ( #120, #146 ) ;
#272 = DIRECTION ( 'NONE',  ( -3.491481338843133355E-15, 1.049697256412017316E-16, -1.000000000000000000 ) ) ;
#273 = APPLICATION_CONTEXT ( 'configuration controlled 3d designs of mechanical parts and assemblies' ) ;
#274 = EDGE_LOOP ( 'NONE', ( #187 ) ) ;
#275 = APPROVAL_ROLE ( '' ) ;
#276 = ORIENTED_EDGE ( 'NONE', *, *, #70, .T. ) ;
#277 = AXIS2_PLACEMENT_3D ( 'NONE', #65, #279, #211 ) ;
#278 = LOCAL_TIME ( 14, 10, 59.00000000000000000, #85 ) ;
#279 = DIRECTION ( 'NONE',  ( 3.491481338843133355E-15, 6.018686094198702209E-16, 1.000000000000000000 ) ) ;
#280 = EDGE_LOOP ( 'NONE', ( #92 ) ) ;
#281 = CARTESIAN_POINT ( 'NONE',  ( 2.309049367014436401E-30, 3.494552615792426555E-31, 6.613380232985912828E-16 ) ) ;
#282 = EDGE_LOOP ( 'NONE', ( #110 ) ) ;
#283 = DIRECTION ( 'NONE',  ( -3.491481338843133355E-15, 1.049697256412017316E-16, -1.000000000000000000 ) ) ;
#284 = ORIENTED_EDGE ( 'NONE', *, *, #197, .T. ) ;
#285 = APPROVAL_PERSON_ORGANIZATION ( #81, #199, #275 ) ;
#286 = FACE_OUTER_BOUND ( 'NONE', #226, .T. ) ;
#287 = MANIFOLD_SOLID_BREP ( 'Corps-Déplacer/Copier1[2]', #88 ) ;
#288 = ORIENTED_EDGE ( 'NONE', *, *, #111, .T. ) ;
#289 = AXIS2_PLACEMENT_3D ( 'NONE', #156, #251, #69 ) ;
#290 = FACE_BOUND ( 'NONE', #42, .T. ) ;
#291 = EDGE_LOOP ( 'NONE', ( #36 ) ) ;
#292 = VERTEX_POINT ( 'NONE', #99 ) ;
#293 =( NAMED_UNIT ( * ) SI_UNIT ( $, .STERADIAN. ) SOLID_ANGLE_UNIT ( ) );
#294 = ADVANCED_FACE ( 'NONE', ( #196, #96 ), #265, .T. ) ;
#295 = VERTEX_POINT ( 'NONE', #168 ) ;
#296 = ADVANCED_FACE ( 'NONE', ( #144, #77 ), #236, .T. ) ;
#297 = COORDINATED_UNIVERSAL_TIME_OFFSET ( 1, 0, .AHEAD. ) ;
#298 = AXIS2_PLACEMENT_3D ( 'NONE', #119, #142, #198 ) ;
#299 = APPROVAL_DATE_TIME ( #16, #159 ) ;
#300 = APPLICATION_PROTOCOL_DEFINITION ( 'international standard', 'config_control_design', 1994, #273 ) ;
#301 = CARTESIAN_POINT ( 'NONE',  ( 2.433562493173664138E-13, -7.316389877191761450E-15, 69.70000000000001705 ) ) ;
#302 = EDGE_LOOP ( 'NONE', ( #288 ) ) ;
#303 = PERSON_AND_ORGANIZATION ( #120, #146 ) ;
ENDSEC;
END-ISO-10303-21;
