ISO-10303-21;
HEADER;
FILE_DESCRIPTION (( 'STEP AP203' ),
    '1' );
FILE_NAME ('321202.step',
    '2021-11-26T13:10:59',
    ( '' ),
    ( '' ),
    'SwSTEP 2.0',
    'SolidWorks 2019',
    '' );
FILE_SCHEMA (( 'CONFIG_CONTROL_DESIGN' ));
ENDSEC;

DATA;
#1 = DIRECTION ( 'NONE',  ( -3.491481338843133355E-15, 1.049697256412017316E-16, -1.000000000000000000 ) ) ;
#2 = DIRECTION ( 'NONE',  ( 1.842813381609854223E-30, -1.000000000000000000, 5.278027297778574781E-16 ) ) ;
#3 = CIRCLE ( 'NONE', #282, 1.415192246987776015 ) ;
#4 = DIRECTION ( 'NONE',  ( 2.163896063879671835E-30, -1.000000000000000000, 6.018686094198701223E-16 ) ) ;
#5 = FACE_OUTER_BOUND ( 'NONE', #268, .T. ) ;
#6 = APPROVAL_ROLE ( '' ) ;
#7 = DIRECTION ( 'NONE',  ( 3.491481338843133355E-15, 6.018686094198702209E-16, 1.000000000000000000 ) ) ;
#8 = ORIENTED_EDGE ( 'NONE', *, *, #173, .F. ) ;
#9 = CARTESIAN_POINT ( 'NONE',  ( 3.929919511603369589E-14, -1.399999999999986811, 11.25573683548745052 ) ) ;
#10 = AXIS2_PLACEMENT_3D ( 'NONE', #255, #114, #138 ) ;
#11 = DIRECTION ( 'NONE',  ( 3.664998382197393967E-31, 1.000000000000000000, 1.049697256412017316E-16 ) ) ;
#12 = APPROVAL ( #197, 'UNSPECIFIED' ) ;
#13 = FACE_OUTER_BOUND ( 'NONE', #71, .T. ) ;
#14 = AXIS2_PLACEMENT_3D ( 'NONE', #184, #215, #283 ) ;
#15 = PRODUCT_DEFINITION_FORMATION_WITH_SPECIFIED_SOURCE ( 'ANY', '', #38, .NOT_KNOWN. ) ;
#16 =( GEOMETRIC_REPRESENTATION_CONTEXT ( 3 ) GLOBAL_UNCERTAINTY_ASSIGNED_CONTEXT ( ( #243 ) ) GLOBAL_UNIT_ASSIGNED_CONTEXT ( ( #183, #51, #118 ) ) REPRESENTATION_CONTEXT ( 'NONE', 'WORKASPACE' ) );
#17 = DIRECTION ( 'NONE',  ( 0.0000000000000000000, 1.000000000000000000, 0.0000000000000000000 ) ) ;
#18 = PERSON_AND_ORGANIZATION_ROLE ( 'creator' ) ;
#19 = DATE_AND_TIME ( #233, #28 ) ;
#20 = COORDINATED_UNIVERSAL_TIME_OFFSET ( 1, 0, .AHEAD. ) ;
#21 = DIRECTION ( 'NONE',  ( 3.491481338843133355E-15, 6.018686094198702209E-16, 1.000000000000000000 ) ) ;
#22 = CARTESIAN_POINT ( 'NONE',  ( 8.728703347107833388E-14, 1.504671523549675690E-14, 25.00000000000000000 ) ) ;
#23 = DIRECTION ( 'NONE',  ( 3.491481338843133355E-15, 6.018686094198702209E-16, 1.000000000000000000 ) ) ;
#24 = PLANE ( 'NONE',  #94 ) ;
#25 = CALENDAR_DATE ( 2021, 26, 11 ) ;
#26 = DIRECTION ( 'NONE',  ( 3.491481338843133355E-15, 5.278027297778574781E-16, 1.000000000000000000 ) ) ;
#27 = CC_DESIGN_PERSON_AND_ORGANIZATION_ASSIGNMENT ( #34, #236, ( #89 ) ) ;
#28 = LOCAL_TIME ( 14, 10, 59.00000000000000000, #46 ) ;
#29 = FACE_OUTER_BOUND ( 'NONE', #98, .T. ) ;
#30 = AXIS2_PLACEMENT_3D ( 'NONE', #235, #216, #17 ) ;
#31 = CC_DESIGN_PERSON_AND_ORGANIZATION_ASSIGNMENT ( #61, #159, ( #38 ) ) ;
#32 = SHAPE_DEFINITION_REPRESENTATION ( #162, #125 ) ;
#33 = DIRECTION ( 'NONE',  ( 3.491481338843133355E-15, -1.049697256412017316E-16, 1.000000000000000000 ) ) ;
#34 = PERSON_AND_ORGANIZATION ( #202, #242 ) ;
#35 = EDGE_LOOP ( 'NONE', ( #247 ) ) ;
#36 = DATE_TIME_ROLE ( 'creation_date' ) ;
#37 = CARTESIAN_POINT ( 'NONE',  ( 0.0000000000000000000, 0.0000000000000000000, 0.0000000000000000000 ) ) ;
#38 = PRODUCT ( '321202', '321202', '', ( #301 ) ) ;
#39 = FACE_BOUND ( 'NONE', #156, .T. ) ;
#40 = DIRECTION ( 'NONE',  ( 1.842813381609854223E-30, -1.000000000000000000, 5.278027297778574781E-16 ) ) ;
#41 = PERSON_AND_ORGANIZATION ( #202, #242 ) ;
#42 = DESIGN_CONTEXT ( 'detailed design', #195, 'design' ) ;
#43 = DIRECTION ( 'NONE',  ( 0.0000000000000000000, 1.000000000000000000, 0.0000000000000000000 ) ) ;
#44 = DIRECTION ( 'NONE',  ( -1.805357832033567443E-30, 1.000000000000000000, -5.444604147064808319E-16 ) ) ;
#45 = DIRECTION ( 'NONE',  ( -1.842813381609854223E-30, 1.000000000000000000, -5.278027297778574781E-16 ) ) ;
#46 = COORDINATED_UNIVERSAL_TIME_OFFSET ( 1, 0, .AHEAD. ) ;
#47 = VERTEX_POINT ( 'NONE', #9 ) ;
#48 = FACE_OUTER_BOUND ( 'NONE', #74, .T. ) ;
#49 = EDGE_LOOP ( 'NONE', ( #269 ) ) ;
#50 = APPROVAL_PERSON_ORGANIZATION ( #217, #256, #6 ) ;
#51 =( NAMED_UNIT ( * ) PLANE_ANGLE_UNIT ( ) SI_UNIT ( $, .RADIAN. ) );
#52 = ORIENTED_EDGE ( 'NONE', *, *, #78, .F. ) ;
#53 = ORIENTED_EDGE ( 'NONE', *, *, #173, .T. ) ;
#54 = ADVANCED_FACE ( 'NONE', ( #135, #257 ), #56, .T. ) ;
#55 = COORDINATED_UNIVERSAL_TIME_OFFSET ( 1, 0, .AHEAD. ) ;
#56 = CONICAL_SURFACE ( 'NONE', #248, 1.349162432702592618, 0.5235987755982970393 ) ;
#57 = EDGE_CURVE ( 'NONE', #284, #284, #241, .T. ) ;
#58 = CC_DESIGN_APPROVAL ( #256, ( #15 ) ) ;
#59 = CARTESIAN_POINT ( 'NONE',  ( 2.444036937190193601E-13, -7.347880794884121511E-15, 70.00000000000000000 ) ) ;
#60 = ADVANCED_FACE ( 'NONE', ( #181, #5 ), #139, .T. ) ;
#61 = PERSON_AND_ORGANIZATION ( #202, #242 ) ;
#62 = CIRCLE ( 'NONE', #14, 1.199999999999997513 ) ;
#63 = DIRECTION ( 'NONE',  ( 3.491481338843133355E-15, 6.018686094198702209E-16, 1.000000000000000000 ) ) ;
#64 = FACE_OUTER_BOUND ( 'NONE', #101, .T. ) ;
#65 = APPROVAL_DATE_TIME ( #19, #214 ) ;
#66 = VERTEX_POINT ( 'NONE', #70 ) ;
#67 = CARTESIAN_POINT ( 'NONE',  ( 1.019483501215131844E-13, 1.757406262999419099E-14, 29.19916798274875802 ) ) ;
#68 = CALENDAR_DATE ( 2021, 26, 11 ) ;
#69 = CARTESIAN_POINT ( 'NONE',  ( 2.433562493173664138E-13, -7.316389877191761450E-15, 69.70000000000001705 ) ) ;
#70 = CARTESIAN_POINT ( 'NONE',  ( 2.433562493173664138E-13, 1.499999999999990230, 69.70000000000001705 ) ) ;
#71 = EDGE_LOOP ( 'NONE', ( #150 ) ) ;
#72 = CARTESIAN_POINT ( 'NONE',  ( -1.337764083793979242E-30, 1.349162432702592618, -3.831508617592192956E-16 ) ) ;
#73 = CIRCLE ( 'NONE', #110, 1.349162432702592618 ) ;
#74 = EDGE_LOOP ( 'NONE', ( #290 ) ) ;
#75 = DIRECTION ( 'NONE',  ( -1.842813381609854223E-30, 1.000000000000000000, -5.278027297778574781E-16 ) ) ;
#76 = ORIENTED_EDGE ( 'NONE', *, *, #57, .F. ) ;
#77 = AXIS2_PLACEMENT_3D ( 'NONE', #37, #212, #82 ) ;
#78 = EDGE_CURVE ( 'NONE', #93, #93, #299, .T. ) ;
#79 = MANIFOLD_SOLID_BREP ( 'Corps-Déplacer/Copier1[1]', #226 ) ;
#80 = EDGE_LOOP ( 'NONE', ( #192 ) ) ;
#81 = CC_DESIGN_APPROVAL ( #12, ( #294 ) ) ;
#82 = DIRECTION ( 'NONE',  ( 1.000000000000000000, 0.0000000000000000000, 0.0000000000000000000 ) ) ;
#83 = MANIFOLD_SOLID_BREP ( 'Corps-Déplacer/Copier1[2]', #128 ) ;
#84 = DIRECTION ( 'NONE',  ( 0.0000000000000000000, -1.000000000000000000, 0.0000000000000000000 ) ) ;
#85 = APPROVAL_STATUS ( 'not_yet_approved' ) ;
#86 = DIRECTION ( 'NONE',  ( -3.491481338843133355E-15, -5.278027297778574781E-16, -1.000000000000000000 ) ) ;
#87 = PERSON_AND_ORGANIZATION_ROLE ( 'design_supplier' ) ;
#88 = VERTEX_POINT ( 'NONE', #220 ) ;
#89 = PRODUCT_DEFINITION ( 'UNKNOWN', '', #15, #42 ) ;
#90 = CARTESIAN_POINT ( 'NONE',  ( 0.0000000000000000000, 0.0000000000000000000, 0.0000000000000000000 ) ) ;
#91 = CARTESIAN_POINT ( 'NONE',  ( 3.873376105874982972E-14, 1.493499999999998717, 11.09379008497976571 ) ) ;
#92 = FACE_OUTER_BOUND ( 'NONE', #80, .T. ) ;
#93 = VERTEX_POINT ( 'NONE', #262 ) ;
#94 = AXIS2_PLACEMENT_3D ( 'NONE', #91, #120, #116 ) ;
#95 = DIRECTION ( 'NONE',  ( 0.0000000000000000000, -1.000000000000000000, 0.0000000000000000000 ) ) ;
#96 = CARTESIAN_POINT ( 'NONE',  ( 8.728703347107860998E-16, 1.319506824444647886E-16, 0.2500000000000007772 ) ) ;
#97 = VERTEX_POINT ( 'NONE', #143 ) ;
#98 = EDGE_LOOP ( 'NONE', ( #99 ) ) ;
#99 = ORIENTED_EDGE ( 'NONE', *, *, #303, .T. ) ;
#100 = AXIS2_PLACEMENT_3D ( 'NONE', #127, #186, #11 ) ;
#101 = EDGE_LOOP ( 'NONE', ( #224 ) ) ;
#102 = DIRECTION ( 'NONE',  ( -3.491481338843133355E-15, -5.278027297778574781E-16, -1.000000000000000000 ) ) ;
#103 = ORIENTED_EDGE ( 'NONE', *, *, #57, .T. ) ;
#104 = APPROVAL_PERSON_ORGANIZATION ( #281, #12, #271 ) ;
#105 = CC_DESIGN_PERSON_AND_ORGANIZATION_ASSIGNMENT ( #182, #18, ( #15 ) ) ;
#106 = ADVANCED_FACE ( 'NONE', ( #280 ), #24, .T. ) ;
#107 = ORIENTED_EDGE ( 'NONE', *, *, #140, .T. ) ;
#108 = DIRECTION ( 'NONE',  ( 3.491481338843133355E-15, 6.018686094198702209E-16, 1.000000000000000000 ) ) ;
#109 = ORIENTED_EDGE ( 'NONE', *, *, #126, .F. ) ;
#110 = AXIS2_PLACEMENT_3D ( 'NONE', #168, #102, #75 ) ;
#111 = CALENDAR_DATE ( 2021, 26, 11 ) ;
#112 = CARTESIAN_POINT ( 'NONE',  ( 0.0000000000000000000, 0.0000000000000000000, 0.0000000000000000000 ) ) ;
#113 = ADVANCED_FACE ( 'NONE', ( #190, #286 ), #293, .T. ) ;
#114 = DIRECTION ( 'NONE',  ( -3.491481338843133355E-15, -6.018686094198702209E-16, -1.000000000000000000 ) ) ;
#115 = APPROVAL_DATE_TIME ( #239, #12 ) ;
#116 = DIRECTION ( 'NONE',  ( 3.664998382197393967E-31, 1.000000000000000000, 1.049697256412017316E-16 ) ) ;
#117 = APPROVAL_STATUS ( 'not_yet_approved' ) ;
#118 =( NAMED_UNIT ( * ) SI_UNIT ( $, .STERADIAN. ) SOLID_ANGLE_UNIT ( ) );
#119 = FACE_BOUND ( 'NONE', #35, .T. ) ;
#120 = DIRECTION ( 'NONE',  ( -3.491481338843133355E-15, 1.049697256412017316E-16, -1.000000000000000000 ) ) ;
#121 = CYLINDRICAL_SURFACE ( 'NONE', #100, 1.499999999999995337 ) ;
#122 = CARTESIAN_POINT ( 'NONE',  ( 8.728703347107833388E-16, 1.493499999999998717, 0.2499999999999999445 ) ) ;
#123 = AXIS2_PLACEMENT_3D ( 'NONE', #112, #252, #211 ) ;
#124 = FACE_OUTER_BOUND ( 'NONE', #300, .T. ) ;
#125 = ADVANCED_BREP_SHAPE_REPRESENTATION ( '321202', ( #79, #83, #77 ), #16 ) ;
#126 = EDGE_CURVE ( 'NONE', #265, #265, #144, .T. ) ;
#127 = CARTESIAN_POINT ( 'NONE',  ( 0.0000000000000000000, 0.0000000000000000000, 0.0000000000000000000 ) ) ;
#128 = CLOSED_SHELL ( 'NONE', ( #296, #196, #54, #273 ) ) ;
#129 = ORIENTED_EDGE ( 'NONE', *, *, #140, .F. ) ;
#130 = CC_DESIGN_PERSON_AND_ORGANIZATION_ASSIGNMENT ( #302, #87, ( #15 ) ) ;
#131 = EDGE_LOOP ( 'NONE', ( #201 ) ) ;
#132 = COORDINATED_UNIVERSAL_TIME_OFFSET ( 1, 0, .AHEAD. ) ;
#133 = ADVANCED_FACE ( 'NONE', ( #178 ), #278, .T. ) ;
#134 = CIRCLE ( 'NONE', #251, 1.493499999999992944 ) ;
#135 = FACE_OUTER_BOUND ( 'NONE', #246, .T. ) ;
#136 = AXIS2_PLACEMENT_3D ( 'NONE', #72, #261, #45 ) ;
#137 = COORDINATED_UNIVERSAL_TIME_OFFSET ( 1, 0, .AHEAD. ) ;
#138 = DIRECTION ( 'NONE',  ( 0.0000000000000000000, 1.000000000000000000, 0.0000000000000000000 ) ) ;
#139 = CYLINDRICAL_SURFACE ( 'NONE', #123, 1.399999999999987255 ) ;
#140 = EDGE_CURVE ( 'NONE', #66, #66, #231, .T. ) ;
#141 = PERSON_AND_ORGANIZATION_ROLE ( 'classification_officer' ) ;
#142 = DIRECTION ( 'NONE',  ( -3.491481338843133355E-15, -5.278027297778574781E-16, -1.000000000000000000 ) ) ;
#143 = CARTESIAN_POINT ( 'NONE',  ( 2.444036937190193601E-13, 1.199999999999990186, 70.00000000000000000 ) ) ;
#144 = CIRCLE ( 'NONE', #254, 1.499999999999995337 ) ;
#145 = LOCAL_TIME ( 14, 10, 59.00000000000000000, #20 ) ;
#146 = EDGE_LOOP ( 'NONE', ( #53 ) ) ;
#147 = PRODUCT_RELATED_PRODUCT_CATEGORY ( 'detail', '', ( #38 ) ) ;
#148 = AXIS2_PLACEMENT_3D ( 'NONE', #59, #33, #229 ) ;
#149 = ORIENTED_EDGE ( 'NONE', *, *, #303, .F. ) ;
#150 = ORIENTED_EDGE ( 'NONE', *, *, #179, .F. ) ;
#151 = CARTESIAN_POINT ( 'NONE',  ( 3.873376105874982972E-14, 5.855332690434850048E-15, 11.09379008497976571 ) ) ;
#152 = AXIS2_PLACEMENT_3D ( 'NONE', #22, #7, #188 ) ;
#153 = CC_DESIGN_DATE_AND_TIME_ASSIGNMENT ( #209, #36, ( #89 ) ) ;
#154 = CONICAL_SURFACE ( 'NONE', #250, 2.124999999999982236, 0.1745329251994328645 ) ;
#155 = LOCAL_TIME ( 14, 10, 59.00000000000000000, #55 ) ;
#156 = EDGE_LOOP ( 'NONE', ( #8 ) ) ;
#157 = APPROVAL_ROLE ( '' ) ;
#158 = CC_DESIGN_PERSON_AND_ORGANIZATION_ASSIGNMENT ( #41, #141, ( #294 ) ) ;
#159 = PERSON_AND_ORGANIZATION_ROLE ( 'design_owner' ) ;
#160 = CARTESIAN_POINT ( 'NONE',  ( 8.728703347107833388E-14, 1.517883041479706208E-14, 25.00000000000000000 ) ) ;
#161 = EDGE_LOOP ( 'NONE', ( #109 ) ) ;
#162 = PRODUCT_DEFINITION_SHAPE ( 'NONE', 'NONE',  #89 ) ;
#163 = SECURITY_CLASSIFICATION_LEVEL ( 'unclassified' ) ;
#164 = FACE_OUTER_BOUND ( 'NONE', #272, .T. ) ;
#165 = DIRECTION ( 'NONE',  ( 3.491481338843133355E-15, 6.018686094198702209E-16, 1.000000000000000000 ) ) ;
#166 = DIRECTION ( 'NONE',  ( 0.0000000000000000000, 1.000000000000000000, 0.0000000000000000000 ) ) ;
#167 = VERTEX_POINT ( 'NONE', #258 ) ;
#168 = CARTESIAN_POINT ( 'NONE',  ( 2.296981002311325906E-30, 3.472316548796155855E-31, 6.578815062698881479E-16 ) ) ;
#169 = AXIS2_PLACEMENT_3D ( 'NONE', #90, #142, #238 ) ;
#170 = ADVANCED_FACE ( 'NONE', ( #275, #119 ), #154, .T. ) ;
#171 = AXIS2_PLACEMENT_3D ( 'NONE', #206, #295, #176 ) ;
#172 = PLANE ( 'NONE',  #291 ) ;
#173 = EDGE_CURVE ( 'NONE', #47, #47, #270, .T. ) ;
#174 = AXIS2_PLACEMENT_3D ( 'NONE', #96, #86, #44 ) ;
#175 = APPLICATION_CONTEXT ( 'configuration controlled 3d designs of mechanical parts and assemblies' ) ;
#176 = DIRECTION ( 'NONE',  ( 0.0000000000000000000, 1.000000000000000000, 0.0000000000000000000 ) ) ;
#177 = CC_DESIGN_APPROVAL ( #214, ( #89 ) ) ;
#178 = FACE_OUTER_BOUND ( 'NONE', #240, .T. ) ;
#179 = EDGE_CURVE ( 'NONE', #237, #237, #134, .T. ) ;
#180 = DATE_AND_TIME ( #25, #145 ) ;
#181 = FACE_OUTER_BOUND ( 'NONE', #146, .T. ) ;
#182 = PERSON_AND_ORGANIZATION ( #202, #242 ) ;
#183 =( LENGTH_UNIT ( ) NAMED_UNIT ( * ) SI_UNIT ( .MILLI., .METRE. ) );
#184 = CARTESIAN_POINT ( 'NONE',  ( 2.444036937190193601E-13, -7.347880794884121511E-15, 70.00000000000000000 ) ) ;
#185 = DIRECTION ( 'NONE',  ( 3.491481338843133355E-15, 5.278027297778574781E-16, 1.000000000000000000 ) ) ;
#186 = DIRECTION ( 'NONE',  ( -3.491481338843133355E-15, 1.049697256412017316E-16, -1.000000000000000000 ) ) ;
#187 = PERSON_AND_ORGANIZATION ( #202, #242 ) ;
#188 = DIRECTION ( 'NONE',  ( 0.0000000000000000000, -1.000000000000000000, 0.0000000000000000000 ) ) ;
#189 = CARTESIAN_POINT ( 'NONE',  ( 3.929919511603369589E-14, 6.774474677170842422E-15, 11.25573683548745052 ) ) ;
#190 = FACE_BOUND ( 'NONE', #208, .T. ) ;
#191 = CARTESIAN_POINT ( 'NONE',  ( 8.957261597119120321E-14, -1.499999999999979794, 25.65461684548776233 ) ) ;
#192 = ORIENTED_EDGE ( 'NONE', *, *, #126, .T. ) ;
#193 = CIRCLE ( 'NONE', #152, 1.399999999999980815 ) ;
#194 = EDGE_LOOP ( 'NONE', ( #107 ) ) ;
#195 = APPLICATION_CONTEXT ( 'configuration controlled 3d designs of mechanical parts and assemblies' ) ;
#196 = ADVANCED_FACE ( 'NONE', ( #48, #213 ), #234, .T. ) ;
#197 = APPROVAL_STATUS ( 'not_yet_approved' ) ;
#198 = EDGE_LOOP ( 'NONE', ( #129 ) ) ;
#199 = CONICAL_SURFACE ( 'NONE', #10, 1.399999999999993472, 0.5235987755982995928 ) ;
#200 = APPROVAL_PERSON_ORGANIZATION ( #187, #214, #157 ) ;
#201 = ORIENTED_EDGE ( 'NONE', *, *, #78, .T. ) ;
#202 = PERSON ( 'UNSPECIFIED', 'UNSPECIFIED', 'UNSPECIFIED', ('UNSPECIFIED'), ('UNSPECIFIED'), ('UNSPECIFIED') ) ;
#203 = CC_DESIGN_SECURITY_CLASSIFICATION ( #294, ( #15 ) ) ;
#204 = EDGE_CURVE ( 'NONE', #97, #97, #62, .T. ) ;
#205 = AXIS2_PLACEMENT_3D ( 'NONE', #69, #1, #166 ) ;
#206 = CARTESIAN_POINT ( 'NONE',  ( 2.433562493173664138E-13, -7.316389877191761450E-15, 69.70000000000001705 ) ) ;
#207 = TOROIDAL_SURFACE ( 'NONE', #276, 2.399999999999977263, 0.9999999999999965583 ) ;
#208 = EDGE_LOOP ( 'NONE', ( #287 ) ) ;
#209 = DATE_AND_TIME ( #111, #277 ) ;
#210 = APPLICATION_PROTOCOL_DEFINITION ( 'international standard', 'config_control_design', 1994, #175 ) ;
#211 = DIRECTION ( 'NONE',  ( 2.101413018224943268E-30, -1.000000000000000000, 6.018686094198702209E-16 ) ) ;
#212 = DIRECTION ( 'NONE',  ( 0.0000000000000000000, 0.0000000000000000000, 1.000000000000000000 ) ) ;
#213 = FACE_OUTER_BOUND ( 'NONE', #292, .T. ) ;
#214 = APPROVAL ( #85, 'UNSPECIFIED' ) ;
#215 = DIRECTION ( 'NONE',  ( -3.491481338843133355E-15, 1.049697256412017316E-16, -1.000000000000000000 ) ) ;
#216 = DIRECTION ( 'NONE',  ( -3.491481338843133355E-15, 1.049697256412017316E-16, -1.000000000000000000 ) ) ;
#217 = PERSON_AND_ORGANIZATION ( #202, #242 ) ;
#218 = CARTESIAN_POINT ( 'NONE',  ( 3.873376105874982341E-14, 1.493499999999998717, 11.09379008497976393 ) ) ;
#219 = DIRECTION ( 'NONE',  ( -3.491481338843133355E-15, -5.278027297778574781E-16, -1.000000000000000000 ) ) ;
#220 = CARTESIAN_POINT ( 'NONE',  ( 8.789332284292655368E-14, -1.415192246987760694, 25.17364817766693363 ) ) ;
#221 = CC_DESIGN_DATE_AND_TIME_ASSIGNMENT ( #279, #245, ( #294 ) ) ;
#222 = ORIENTED_EDGE ( 'NONE', *, *, #204, .F. ) ;
#223 = FACE_OUTER_BOUND ( 'NONE', #194, .T. ) ;
#224 = ORIENTED_EDGE ( 'NONE', *, *, #288, .T. ) ;
#225 = ADVANCED_FACE ( 'NONE', ( #29, #124 ), #207, .F. ) ;
#226 = CLOSED_SHELL ( 'NONE', ( #267, #133, #113, #170, #225, #60, #228, #106 ) ) ;
#227 = CARTESIAN_POINT ( 'NONE',  ( 8.957261597119120321E-14, 1.544070856599329525E-14, 25.65461684548776233 ) ) ;
#228 = ADVANCED_FACE ( 'NONE', ( #164, #39 ), #199, .T. ) ;
#229 = DIRECTION ( 'NONE',  ( -3.664998382197393967E-31, -1.000000000000000000, -1.049697256412017316E-16 ) ) ;
#230 = APPLICATION_PROTOCOL_DEFINITION ( 'international standard', 'config_control_design', 1994, #195 ) ;
#231 = CIRCLE ( 'NONE', #171, 1.499999999999997558 ) ;
#232 = CARTESIAN_POINT ( 'NONE',  ( 8.789332284292655368E-14, 1.515122862271744924E-14, 25.17364817766693363 ) ) ;
#233 = CALENDAR_DATE ( 2021, 26, 11 ) ;
#234 = CYLINDRICAL_SURFACE ( 'NONE', #169, 1.493499999999995609 ) ;
#235 = CARTESIAN_POINT ( 'NONE',  ( 3.873376105874982972E-14, 7.515431702699467440E-15, 11.09379008497976571 ) ) ;
#236 = PERSON_AND_ORGANIZATION_ROLE ( 'creator' ) ;
#237 = VERTEX_POINT ( 'NONE', #218 ) ;
#238 = DIRECTION ( 'NONE',  ( -1.842813381609854223E-30, 1.000000000000000000, -5.278027297778574781E-16 ) ) ;
#239 = DATE_AND_TIME ( #68, #298 ) ;
#240 = EDGE_LOOP ( 'NONE', ( #222 ) ) ;
#241 = CIRCLE ( 'NONE', #174, 1.493499999999998495 ) ;
#242 = ORGANIZATION ( 'UNSPECIFIED', 'UNSPECIFIED', '' ) ;
#243 = UNCERTAINTY_MEASURE_WITH_UNIT (LENGTH_MEASURE( 1.000000000000000082E-05 ), #183, 'distance_accuracy_value', 'NONE');
#244 = VERTEX_POINT ( 'NONE', #289 ) ;
#245 = DATE_TIME_ROLE ( 'classification_date' ) ;
#246 = EDGE_LOOP ( 'NONE', ( #103 ) ) ;
#247 = ORIENTED_EDGE ( 'NONE', *, *, #249, .T. ) ;
#248 = AXIS2_PLACEMENT_3D ( 'NONE', #260, #185, #40 ) ;
#249 = EDGE_CURVE ( 'NONE', #88, #88, #3, .T. ) ;
#250 = AXIS2_PLACEMENT_3D ( 'NONE', #67, #23, #285 ) ;
#251 = AXIS2_PLACEMENT_3D ( 'NONE', #263, #219, #43 ) ;
#252 = DIRECTION ( 'NONE',  ( 3.491481338843133355E-15, 6.018686094198702209E-16, 1.000000000000000000 ) ) ;
#253 = APPROVAL_DATE_TIME ( #180, #256 ) ;
#254 = AXIS2_PLACEMENT_3D ( 'NONE', #227, #108, #84 ) ;
#255 = CARTESIAN_POINT ( 'NONE',  ( 3.929919511603369589E-14, 6.774474677170842422E-15, 11.25573683548745052 ) ) ;
#256 = APPROVAL ( #117, 'UNSPECIFIED' ) ;
#257 = FACE_BOUND ( 'NONE', #49, .T. ) ;
#258 = CARTESIAN_POINT ( 'NONE',  ( -1.892735826383161356E-31, 1.349162432702592618, -5.421010862427522170E-17 ) ) ;
#259 = DIRECTION ( 'NONE',  ( 0.0000000000000000000, -1.000000000000000000, 0.0000000000000000000 ) ) ;
#260 = CARTESIAN_POINT ( 'NONE',  ( 2.296981002311325906E-30, 3.472316548796155855E-31, 6.578815062698881479E-16 ) ) ;
#261 = DIRECTION ( 'NONE',  ( -3.491481338843133355E-15, -5.278027297778574781E-16, -1.000000000000000000 ) ) ;
#262 = CARTESIAN_POINT ( 'NONE',  ( 3.873376105874982972E-14, 1.493499999999998495, 11.09379008497976571 ) ) ;
#263 = CARTESIAN_POINT ( 'NONE',  ( 3.873376105874982341E-14, 5.855332690434848470E-15, 11.09379008497976393 ) ) ;
#264 = PLANE ( 'NONE',  #136 ) ;
#265 = VERTEX_POINT ( 'NONE', #191 ) ;
#266 = AXIS2_PLACEMENT_3D ( 'NONE', #189, #165, #95 ) ;
#267 = ADVANCED_FACE ( 'NONE', ( #223, #92 ), #121, .T. ) ;
#268 = EDGE_LOOP ( 'NONE', ( #149 ) ) ;
#269 = ORIENTED_EDGE ( 'NONE', *, *, #288, .F. ) ;
#270 = CIRCLE ( 'NONE', #266, 1.399999999999993472 ) ;
#271 = APPROVAL_ROLE ( '' ) ;
#272 = EDGE_LOOP ( 'NONE', ( #52 ) ) ;
#273 = ADVANCED_FACE ( 'NONE', ( #64 ), #264, .T. ) ;
#274 = ORIENTED_EDGE ( 'NONE', *, *, #249, .F. ) ;
#275 = FACE_OUTER_BOUND ( 'NONE', #161, .T. ) ;
#276 = AXIS2_PLACEMENT_3D ( 'NONE', #160, #63, #4 ) ;
#277 = LOCAL_TIME ( 14, 10, 59.00000000000000000, #137 ) ;
#278 = PLANE ( 'NONE',  #148 ) ;
#279 = DATE_AND_TIME ( #297, #155 ) ;
#280 = FACE_OUTER_BOUND ( 'NONE', #131, .T. ) ;
#281 = PERSON_AND_ORGANIZATION ( #202, #242 ) ;
#282 = AXIS2_PLACEMENT_3D ( 'NONE', #232, #21, #259 ) ;
#283 = DIRECTION ( 'NONE',  ( 0.0000000000000000000, 1.000000000000000000, 0.0000000000000000000 ) ) ;
#284 = VERTEX_POINT ( 'NONE', #122 ) ;
#285 = DIRECTION ( 'NONE',  ( 0.0000000000000000000, -1.000000000000000000, 0.0000000000000000000 ) ) ;
#286 = FACE_OUTER_BOUND ( 'NONE', #198, .T. ) ;
#287 = ORIENTED_EDGE ( 'NONE', *, *, #204, .T. ) ;
#288 = EDGE_CURVE ( 'NONE', #167, #167, #73, .T. ) ;
#289 = CARTESIAN_POINT ( 'NONE',  ( 8.728703347107833388E-14, -1.399999999999965938, 25.00000000000000000 ) ) ;
#290 = ORIENTED_EDGE ( 'NONE', *, *, #179, .T. ) ;
#291 = AXIS2_PLACEMENT_3D ( 'NONE', #151, #26, #2 ) ;
#292 = EDGE_LOOP ( 'NONE', ( #76 ) ) ;
#293 = CONICAL_SURFACE ( 'NONE', #205, 1.499999999999997558, 0.7853981633974573828 ) ;
#294 = SECURITY_CLASSIFICATION ( '', '', #163 ) ;
#295 = DIRECTION ( 'NONE',  ( -3.491481338843133355E-15, 1.049697256412017316E-16, -1.000000000000000000 ) ) ;
#296 = ADVANCED_FACE ( 'NONE', ( #13 ), #172, .T. ) ;
#297 = CALENDAR_DATE ( 2021, 26, 11 ) ;
#298 = LOCAL_TIME ( 14, 10, 59.00000000000000000, #132 ) ;
#299 = CIRCLE ( 'NONE', #30, 1.493499999999990946 ) ;
#300 = EDGE_LOOP ( 'NONE', ( #274 ) ) ;
#301 = MECHANICAL_CONTEXT ( 'NONE', #175, 'mechanical' ) ;
#302 = PERSON_AND_ORGANIZATION ( #202, #242 ) ;
#303 = EDGE_CURVE ( 'NONE', #244, #244, #193, .T. ) ;
ENDSEC;
END-ISO-10303-21;
