ISO-10303-21;
HEADER;
FILE_DESCRIPTION (( 'STEP AP203' ),
    '1' );
FILE_NAME ('3207.step',
    '2021-12-06T12:58:43',
    ( '' ),
    ( '' ),
    'SwSTEP 2.0',
    'SolidWorks 2019',
    '' );
FILE_SCHEMA (( 'CONFIG_CONTROL_DESIGN' ));
ENDSEC;

DATA;
#1 = ADVANCED_FACE ( 'NONE', ( #21, #62 ), #100, .T. ) ;
#2 = PLANE ( 'NONE',  #82 ) ;
#3 = AXIS2_PLACEMENT_3D ( 'NONE', #117, #99, #162 ) ;
#4 = FACE_OUTER_BOUND ( 'NONE', #167, .T. ) ;
#5 =( NAMED_UNIT ( * ) SI_UNIT ( $, .STERADIAN. ) SOLID_ANGLE_UNIT ( ) );
#6 = LOCAL_TIME ( 13, 58, 43.00000000000000000, #103 ) ;
#7 = CC_DESIGN_PERSON_AND_ORGANIZATION_ASSIGNMENT ( #140, #166, ( #63 ) ) ;
#8 = DESIGN_CONTEXT ( 'detailed design', #55, 'design' ) ;
#9 = EDGE_LOOP ( 'NONE', ( #155 ) ) ;
#10 = PRODUCT_DEFINITION_SHAPE ( 'NONE', 'NONE',  #63 ) ;
#11 = CALENDAR_DATE ( 2021, 6, 12 ) ;
#12 = PERSON_AND_ORGANIZATION_ROLE ( 'classification_officer' ) ;
#13 = ORGANIZATION ( 'UNSPECIFIED', 'UNSPECIFIED', '' ) ;
#14 = PERSON_AND_ORGANIZATION ( #51, #13 ) ;
#15 = DIRECTION ( 'NONE',  ( 4.275831445896954228E-31, 1.000000000000000000, 1.224646799147351975E-16 ) ) ;
#16 = APPROVAL_PERSON_ORGANIZATION ( #130, #88, #92 ) ;
#17 = VERTEX_POINT ( 'NONE', #47 ) ;
#18 = VERTEX_POINT ( 'NONE', #135 ) ;
#19 = DIRECTION ( 'NONE',  ( -3.491481338843133355E-15, 1.224646799147351975E-16, -1.000000000000000000 ) ) ;
#20 = CARTESIAN_POINT ( 'NONE',  ( 0.0000000000000000000, 31.50000000000000000, 0.0000000000000000000 ) ) ;
#21 = FACE_OUTER_BOUND ( 'NONE', #45, .T. ) ;
#22 = APPROVAL ( #169, 'UNSPECIFIED' ) ;
#23 =( LENGTH_UNIT ( ) NAMED_UNIT ( * ) SI_UNIT ( .MILLI., .METRE. ) );
#24 = EDGE_CURVE ( 'NONE', #17, #17, #65, .T. ) ;
#25 = ADVANCED_BREP_SHAPE_REPRESENTATION ( '3207', ( #64, #3 ), #69 ) ;
#26 = CC_DESIGN_APPROVAL ( #22, ( #75 ) ) ;
#27 = ORIENTED_EDGE ( 'NONE', *, *, #68, .F. ) ;
#28 = CARTESIAN_POINT ( 'NONE',  ( -3.420665156717562681E-30, 1.199807826129483678E-31, -9.797174393178815797E-16 ) ) ;
#29 = DATE_TIME_ROLE ( 'classification_date' ) ;
#30 = APPROVAL_PERSON_ORGANIZATION ( #14, #22, #70 ) ;
#31 = DATE_AND_TIME ( #153, #159 ) ;
#32 = EDGE_LOOP ( 'NONE', ( #133 ) ) ;
#33 = FACE_OUTER_BOUND ( 'NONE', #74, .T. ) ;
#34 = AXIS2_PLACEMENT_3D ( 'NONE', #96, #146, #120 ) ;
#35 = CARTESIAN_POINT ( 'NONE',  ( 0.0000000000000000000, 0.0000000000000000000, 0.0000000000000000000 ) ) ;
#36 = CARTESIAN_POINT ( 'NONE',  ( 2.444036937190193743E-15, 8.000000000000000000, 0.7000000000000000666 ) ) ;
#37 = CIRCLE ( 'NONE', #38, 31.50000000000000000 ) ;
#38 = AXIS2_PLACEMENT_3D ( 'NONE', #158, #139, #136 ) ;
#39 = ADVANCED_FACE ( 'NONE', ( #87, #125 ), #59, .F. ) ;
#40 = CC_DESIGN_PERSON_AND_ORGANIZATION_ASSIGNMENT ( #97, #84, ( #110 ) ) ;
#41 = PERSON_AND_ORGANIZATION_ROLE ( 'creator' ) ;
#42 = APPROVAL_DATE_TIME ( #108, #104 ) ;
#43 = LOCAL_TIME ( 13, 58, 43.00000000000000000, #79 ) ;
#44 = CC_DESIGN_DATE_AND_TIME_ASSIGNMENT ( #31, #141, ( #63 ) ) ;
#45 = EDGE_LOOP ( 'NONE', ( #157 ) ) ;
#46 = PRODUCT_RELATED_PRODUCT_CATEGORY ( 'detail', '', ( #110 ) ) ;
#47 = CARTESIAN_POINT ( 'NONE',  ( 6.842277657836020854E-46, 8.000000000000000000, 0.0000000000000000000 ) ) ;
#48 = MECHANICAL_CONTEXT ( 'NONE', #50, 'mechanical' ) ;
#49 = LOCAL_TIME ( 13, 58, 43.00000000000000000, #142 ) ;
#50 = APPLICATION_CONTEXT ( 'configuration controlled 3d designs of mechanical parts and assemblies' ) ;
#51 = PERSON ( 'UNSPECIFIED', 'UNSPECIFIED', 'UNSPECIFIED', ('UNSPECIFIED'), ('UNSPECIFIED'), ('UNSPECIFIED') ) ;
#52 = APPROVAL_DATE_TIME ( #105, #88 ) ;
#53 = CC_DESIGN_APPROVAL ( #88, ( #168 ) ) ;
#54 = EDGE_LOOP ( 'NONE', ( #90 ) ) ;
#55 = APPLICATION_CONTEXT ( 'configuration controlled 3d designs of mechanical parts and assemblies' ) ;
#56 = PERSON_AND_ORGANIZATION ( #51, #13 ) ;
#57 = CARTESIAN_POINT ( 'NONE',  ( 2.444036937190189010E-15, 8.000000000000000000, 0.6999999999999987343 ) ) ;
#58 = AXIS2_PLACEMENT_3D ( 'NONE', #116, #150, #121 ) ;
#59 = CYLINDRICAL_SURFACE ( 'NONE', #131, 8.000000000000000000 ) ;
#60 = CIRCLE ( 'NONE', #34, 31.50000000000000000 ) ;
#61 = APPROVAL_STATUS ( 'not_yet_approved' ) ;
#62 = FACE_BOUND ( 'NONE', #32, .T. ) ;
#63 = PRODUCT_DEFINITION ( 'UNKNOWN', '', #168, #8 ) ;
#64 = MANIFOLD_SOLID_BREP ( 'Corps-Déplacer/Copier1', #107 ) ;
#65 = CIRCLE ( 'NONE', #144, 8.000000000000000000 ) ;
#66 = APPROVAL_STATUS ( 'not_yet_approved' ) ;
#67 = PERSON_AND_ORGANIZATION ( #51, #13 ) ;
#68 = EDGE_CURVE ( 'NONE', #18, #18, #60, .T. ) ;
#69 =( GEOMETRIC_REPRESENTATION_CONTEXT ( 3 ) GLOBAL_UNCERTAINTY_ASSIGNED_CONTEXT ( ( #98 ) ) GLOBAL_UNIT_ASSIGNED_CONTEXT ( ( #23, #73, #5 ) ) REPRESENTATION_CONTEXT ( 'NONE', 'WORKASPACE' ) );
#70 = APPROVAL_ROLE ( '' ) ;
#71 = COORDINATED_UNIVERSAL_TIME_OFFSET ( 1, 0, .AHEAD. ) ;
#72 = VERTEX_POINT ( 'NONE', #36 ) ;
#73 =( NAMED_UNIT ( * ) PLANE_ANGLE_UNIT ( ) SI_UNIT ( $, .RADIAN. ) );
#74 = EDGE_LOOP ( 'NONE', ( #80 ) ) ;
#75 = SECURITY_CLASSIFICATION ( '', '', #109 ) ;
#76 = DIRECTION ( 'NONE',  ( 4.275831445896954228E-31, 1.000000000000000000, 1.224646799147351975E-16 ) ) ;
#77 = DIRECTION ( 'NONE',  ( -3.491481338843133355E-15, 1.224646799147351975E-16, -1.000000000000000000 ) ) ;
#78 = CC_DESIGN_PERSON_AND_ORGANIZATION_ASSIGNMENT ( #67, #165, ( #168 ) ) ;
#79 = COORDINATED_UNIVERSAL_TIME_OFFSET ( 1, 0, .AHEAD. ) ;
#80 = ORIENTED_EDGE ( 'NONE', *, *, #123, .F. ) ;
#81 = DATE_AND_TIME ( #89, #43 ) ;
#82 = AXIS2_PLACEMENT_3D ( 'NONE', #57, #95, #149 ) ;
#83 = DATE_AND_TIME ( #156, #122 ) ;
#84 = PERSON_AND_ORGANIZATION_ROLE ( 'design_owner' ) ;
#85 = CYLINDRICAL_SURFACE ( 'NONE', #93, 31.50000000000000000 ) ;
#86 = APPLICATION_PROTOCOL_DEFINITION ( 'international standard', 'config_control_design', 1994, #50 ) ;
#87 = FACE_OUTER_BOUND ( 'NONE', #129, .T. ) ;
#88 = APPROVAL ( #66, 'UNSPECIFIED' ) ;
#89 = CALENDAR_DATE ( 2021, 6, 12 ) ;
#90 = ORIENTED_EDGE ( 'NONE', *, *, #143, .F. ) ;
#91 = COORDINATED_UNIVERSAL_TIME_OFFSET ( 1, 0, .AHEAD. ) ;
#92 = APPROVAL_ROLE ( '' ) ;
#93 = AXIS2_PLACEMENT_3D ( 'NONE', #145, #115, #126 ) ;
#94 = ORIENTED_EDGE ( 'NONE', *, *, #143, .T. ) ;
#95 = DIRECTION ( 'NONE',  ( 3.491481338843133355E-15, -1.224646799147351975E-16, 1.000000000000000000 ) ) ;
#96 = CARTESIAN_POINT ( 'NONE',  ( 2.444036937190179938E-15, -8.572527594031416490E-17, 0.6999999999999961808 ) ) ;
#97 = PERSON_AND_ORGANIZATION ( #51, #13 ) ;
#98 = UNCERTAINTY_MEASURE_WITH_UNIT (LENGTH_MEASURE( 1.000000000000000082E-05 ), #23, 'distance_accuracy_value', 'NONE');
#99 = DIRECTION ( 'NONE',  ( 0.0000000000000000000, 0.0000000000000000000, 1.000000000000000000 ) ) ;
#100 = PLANE ( 'NONE',  #58 ) ;
#101 = ADVANCED_FACE ( 'NONE', ( #152, #33 ), #85, .T. ) ;
#102 = CC_DESIGN_SECURITY_CLASSIFICATION ( #75, ( #168 ) ) ;
#103 = COORDINATED_UNIVERSAL_TIME_OFFSET ( 1, 0, .AHEAD. ) ;
#104 = APPROVAL ( #61, 'UNSPECIFIED' ) ;
#105 = DATE_AND_TIME ( #11, #49 ) ;
#106 = CALENDAR_DATE ( 2021, 6, 12 ) ;
#107 = CLOSED_SHELL ( 'NONE', ( #1, #101, #151, #39 ) ) ;
#108 = DATE_AND_TIME ( #106, #6 ) ;
#109 = SECURITY_CLASSIFICATION_LEVEL ( 'unclassified' ) ;
#110 = PRODUCT ( '3207', '3207', '', ( #48 ) ) ;
#111 = CC_DESIGN_PERSON_AND_ORGANIZATION_ASSIGNMENT ( #56, #41, ( #168 ) ) ;
#112 = VERTEX_POINT ( 'NONE', #20 ) ;
#113 = AXIS2_PLACEMENT_3D ( 'NONE', #124, #19, #114 ) ;
#114 = DIRECTION ( 'NONE',  ( 4.333342374871280669E-31, 1.000000000000000000, 1.219727444046192488E-16 ) ) ;
#115 = DIRECTION ( 'NONE',  ( -3.491481338843133355E-15, 1.224646799147351975E-16, -1.000000000000000000 ) ) ;
#116 = CARTESIAN_POINT ( 'NONE',  ( -5.024101948928921152E-30, 8.000000000000000000, -1.438959988998138582E-15 ) ) ;
#117 = CARTESIAN_POINT ( 'NONE',  ( 0.0000000000000000000, 0.0000000000000000000, 0.0000000000000000000 ) ) ;
#118 = APPROVAL_DATE_TIME ( #81, #22 ) ;
#119 = DIRECTION ( 'NONE',  ( -3.491481338843133355E-15, 1.224646799147351975E-16, -1.000000000000000000 ) ) ;
#120 = DIRECTION ( 'NONE',  ( 4.279844320860524021E-31, 1.000000000000000000, 1.239088197126290817E-16 ) ) ;
#121 = DIRECTION ( 'NONE',  ( 4.275831445896954228E-31, 1.000000000000000000, 1.224646799147351975E-16 ) ) ;
#122 = LOCAL_TIME ( 13, 58, 43.00000000000000000, #71 ) ;
#123 = EDGE_CURVE ( 'NONE', #112, #112, #37, .T. ) ;
#124 = CARTESIAN_POINT ( 'NONE',  ( 2.444036937190190193E-15, -8.572527594031453468E-17, 0.6999999999999991784 ) ) ;
#125 = FACE_OUTER_BOUND ( 'NONE', #54, .T. ) ;
#126 = DIRECTION ( 'NONE',  ( 4.275831445896954228E-31, 1.000000000000000000, 1.224646799147351975E-16 ) ) ;
#127 = SHAPE_DEFINITION_REPRESENTATION ( #10, #25 ) ;
#128 = CC_DESIGN_APPROVAL ( #104, ( #63 ) ) ;
#129 = EDGE_LOOP ( 'NONE', ( #138 ) ) ;
#130 = PERSON_AND_ORGANIZATION ( #51, #13 ) ;
#131 = AXIS2_PLACEMENT_3D ( 'NONE', #35, #77, #76 ) ;
#132 = CC_DESIGN_PERSON_AND_ORGANIZATION_ASSIGNMENT ( #134, #12, ( #75 ) ) ;
#133 = ORIENTED_EDGE ( 'NONE', *, *, #24, .F. ) ;
#134 = PERSON_AND_ORGANIZATION ( #51, #13 ) ;
#135 = CARTESIAN_POINT ( 'NONE',  ( 2.444036937190193743E-15, 31.50000000000000000, 0.7000000000000000666 ) ) ;
#136 = DIRECTION ( 'NONE',  ( 4.275831445896954228E-31, 1.000000000000000000, 1.224646799147351975E-16 ) ) ;
#137 = PERSON_AND_ORGANIZATION ( #51, #13 ) ;
#138 = ORIENTED_EDGE ( 'NONE', *, *, #24, .T. ) ;
#139 = DIRECTION ( 'NONE',  ( -3.491481338843133355E-15, 1.224646799147351975E-16, -1.000000000000000000 ) ) ;
#140 = PERSON_AND_ORGANIZATION ( #51, #13 ) ;
#141 = DATE_TIME_ROLE ( 'creation_date' ) ;
#142 = COORDINATED_UNIVERSAL_TIME_OFFSET ( 1, 0, .AHEAD. ) ;
#143 = EDGE_CURVE ( 'NONE', #72, #72, #154, .T. ) ;
#144 = AXIS2_PLACEMENT_3D ( 'NONE', #28, #119, #15 ) ;
#145 = CARTESIAN_POINT ( 'NONE',  ( 0.0000000000000000000, 0.0000000000000000000, 0.0000000000000000000 ) ) ;
#146 = DIRECTION ( 'NONE',  ( -3.491481338843133355E-15, 1.224646799147351975E-16, -1.000000000000000000 ) ) ;
#147 = APPLICATION_PROTOCOL_DEFINITION ( 'international standard', 'config_control_design', 1994, #55 ) ;
#148 = EDGE_LOOP ( 'NONE', ( #94 ) ) ;
#149 = DIRECTION ( 'NONE',  ( -4.275831445896954228E-31, -1.000000000000000000, -1.224646799147351975E-16 ) ) ;
#150 = DIRECTION ( 'NONE',  ( -3.491481338843133355E-15, 1.224646799147351975E-16, -1.000000000000000000 ) ) ;
#151 = ADVANCED_FACE ( 'NONE', ( #160, #4 ), #2, .T. ) ;
#152 = FACE_OUTER_BOUND ( 'NONE', #9, .T. ) ;
#153 = CALENDAR_DATE ( 2021, 6, 12 ) ;
#154 = CIRCLE ( 'NONE', #113, 8.000000000000000000 ) ;
#155 = ORIENTED_EDGE ( 'NONE', *, *, #68, .T. ) ;
#156 = CALENDAR_DATE ( 2021, 6, 12 ) ;
#157 = ORIENTED_EDGE ( 'NONE', *, *, #123, .T. ) ;
#158 = CARTESIAN_POINT ( 'NONE',  ( -1.346886905457540639E-29, 4.724243315384841940E-31, -3.857637417314158745E-15 ) ) ;
#159 = LOCAL_TIME ( 13, 58, 43.00000000000000000, #91 ) ;
#160 = FACE_BOUND ( 'NONE', #148, .T. ) ;
#161 = CC_DESIGN_DATE_AND_TIME_ASSIGNMENT ( #83, #29, ( #75 ) ) ;
#162 = DIRECTION ( 'NONE',  ( 1.000000000000000000, 0.0000000000000000000, 0.0000000000000000000 ) ) ;
#163 = APPROVAL_PERSON_ORGANIZATION ( #137, #104, #164 ) ;
#164 = APPROVAL_ROLE ( '' ) ;
#165 = PERSON_AND_ORGANIZATION_ROLE ( 'design_supplier' ) ;
#166 = PERSON_AND_ORGANIZATION_ROLE ( 'creator' ) ;
#167 = EDGE_LOOP ( 'NONE', ( #27 ) ) ;
#168 = PRODUCT_DEFINITION_FORMATION_WITH_SPECIFIED_SOURCE ( 'ANY', '', #110, .NOT_KNOWN. ) ;
#169 = APPROVAL_STATUS ( 'not_yet_approved' ) ;
ENDSEC;
END-ISO-10303-21;
