ISO-10303-21;
HEADER;
FILE_DESCRIPTION (( 'STEP AP203' ),
    '1' );
FILE_NAME ('31882.step',
    '2021-12-06T12:58:42',
    ( '' ),
    ( '' ),
    'SwSTEP 2.0',
    'SolidWorks 2019',
    '' );
FILE_SCHEMA (( 'CONFIG_CONTROL_DESIGN' ));
ENDSEC;

DATA;
#1 = CC_DESIGN_DATE_AND_TIME_ASSIGNMENT ( #143, #80, ( #125 ) ) ;
#2 = APPROVAL_ROLE ( '' ) ;
#3 = APPROVAL_PERSON_ORGANIZATION ( #14, #163, #2 ) ;
#4 = CIRCLE ( 'NONE', #20, 31.50000000000000000 ) ;
#5 = CIRCLE ( 'NONE', #82, 8.000000000000000000 ) ;
#6 = DIRECTION ( 'NONE',  ( 6.997437562523445693E-31, 1.000000000000000000, 2.004145771789224203E-16 ) ) ;
#7 = CC_DESIGN_PERSON_AND_ORGANIZATION_ASSIGNMENT ( #142, #135, ( #125 ) ) ;
#8 = EDGE_LOOP ( 'NONE', ( #40 ) ) ;
#9 = FACE_OUTER_BOUND ( 'NONE', #50, .T. ) ;
#10 = ORIENTED_EDGE ( 'NONE', *, *, #100, .T. ) ;
#11 = AXIS2_PLACEMENT_3D ( 'NONE', #61, #75, #81 ) ;
#12 = APPROVAL_ROLE ( '' ) ;
#13 = CC_DESIGN_PERSON_AND_ORGANIZATION_ASSIGNMENT ( #147, #137, ( #73 ) ) ;
#14 = PERSON_AND_ORGANIZATION ( #160, #78 ) ;
#15 = VERTEX_POINT ( 'NONE', #169 ) ;
#16 = CC_DESIGN_APPROVAL ( #134, ( #73 ) ) ;
#17 = DIRECTION ( 'NONE',  ( -3.491481338843133355E-15, 2.004145771789224203E-16, -1.000000000000000000 ) ) ;
#18 = CARTESIAN_POINT ( 'NONE',  ( 1.745740669421566993E-14, 8.000000000000000000, 5.000000000000000888 ) ) ;
#19 = CALENDAR_DATE ( 2021, 6, 12 ) ;
#20 = AXIS2_PLACEMENT_3D ( 'NONE', #133, #17, #35 ) ;
#21 = CALENDAR_DATE ( 2021, 6, 12 ) ;
#22 = ORIENTED_EDGE ( 'NONE', *, *, #24, .F. ) ;
#23 = CARTESIAN_POINT ( 'NONE',  ( 0.0000000000000000000, 0.0000000000000000000, 0.0000000000000000000 ) ) ;
#24 = EDGE_CURVE ( 'NONE', #120, #120, #126, .T. ) ;
#25 = CC_DESIGN_APPROVAL ( #69, ( #125 ) ) ;
#26 = ORIENTED_EDGE ( 'NONE', *, *, #24, .T. ) ;
#27 = CC_DESIGN_DATE_AND_TIME_ASSIGNMENT ( #113, #99, ( #73 ) ) ;
#28 = FACE_OUTER_BOUND ( 'NONE', #117, .T. ) ;
#29 = DIRECTION ( 'NONE',  ( 6.997437562523445693E-31, 1.000000000000000000, 2.004145771789224203E-16 ) ) ;
#30 =( LENGTH_UNIT ( ) NAMED_UNIT ( * ) SI_UNIT ( .MILLI., .METRE. ) );
#31 = PERSON_AND_ORGANIZATION ( #160, #78 ) ;
#32 = DIRECTION ( 'NONE',  ( -3.491481338843133355E-15, 2.004145771789224203E-16, -1.000000000000000000 ) ) ;
#33 = DATE_AND_TIME ( #89, #96 ) ;
#34 = CLOSED_SHELL ( 'NONE', ( #42, #71, #146, #44 ) ) ;
#35 = DIRECTION ( 'NONE',  ( 6.847750913376838783E-31, 1.000000000000000000, 1.927470528863119049E-16 ) ) ;
#36 = PRODUCT_DEFINITION_SHAPE ( 'NONE', 'NONE',  #125 ) ;
#37 = AXIS2_PLACEMENT_3D ( 'NONE', #167, #105, #57 ) ;
#38 = ORIENTED_EDGE ( 'NONE', *, *, #103, .T. ) ;
#39 = PRODUCT ( '31882', '31882', '', ( #84 ) ) ;
#40 = ORIENTED_EDGE ( 'NONE', *, *, #152, .F. ) ;
#41 = DIRECTION ( 'NONE',  ( -3.491481338843133355E-15, 2.004145771789224203E-16, -1.000000000000000000 ) ) ;
#42 = ADVANCED_FACE ( 'NONE', ( #98, #116 ), #164, .T. ) ;
#43 = CALENDAR_DATE ( 2021, 6, 12 ) ;
#44 = ADVANCED_FACE ( 'NONE', ( #86, #88 ), #138, .F. ) ;
#45 = VERTEX_POINT ( 'NONE', #18 ) ;
#46 = CC_DESIGN_PERSON_AND_ORGANIZATION_ASSIGNMENT ( #56, #104, ( #39 ) ) ;
#47 = PERSON_AND_ORGANIZATION_ROLE ( 'creator' ) ;
#48 = APPROVAL_STATUS ( 'not_yet_approved' ) ;
#49 = LOCAL_TIME ( 13, 58, 42.00000000000000000, #79 ) ;
#50 = EDGE_LOOP ( 'NONE', ( #22 ) ) ;
#51 = DIRECTION ( 'NONE',  ( -3.491481338843133355E-15, 2.004145771789224203E-16, -1.000000000000000000 ) ) ;
#52 = ORIENTED_EDGE ( 'NONE', *, *, #103, .F. ) ;
#53 = CARTESIAN_POINT ( 'NONE',  ( -8.221989135965048404E-30, 8.000000000000000000, -2.354871281852338599E-15 ) ) ;
#54 = APPROVAL_DATE_TIME ( #55, #134 ) ;
#55 = DATE_AND_TIME ( #19, #87 ) ;
#56 = PERSON_AND_ORGANIZATION ( #160, #78 ) ;
#57 = DIRECTION ( 'NONE',  ( 7.703719777548941661E-31, 1.000000000000000000, 2.168404344971008375E-16 ) ) ;
#58 = ADVANCED_BREP_SHAPE_REPRESENTATION ( '31882', ( #115, #59 ), #130 ) ;
#59 = AXIS2_PLACEMENT_3D ( 'NONE', #136, #70, #108 ) ;
#60 = PERSON_AND_ORGANIZATION ( #160, #78 ) ;
#61 = CARTESIAN_POINT ( 'NONE',  ( 1.745740669421566047E-14, 8.000000000000000000, 4.999999999999998224 ) ) ;
#62 = APPROVAL_DATE_TIME ( #110, #163 ) ;
#63 = LOCAL_TIME ( 13, 58, 42.00000000000000000, #122 ) ;
#64 = COORDINATED_UNIVERSAL_TIME_OFFSET ( 1, 0, .AHEAD. ) ;
#65 = UNCERTAINTY_MEASURE_WITH_UNIT (LENGTH_MEASURE( 1.000000000000000082E-05 ), #30, 'distance_accuracy_value', 'NONE');
#66 = EDGE_LOOP ( 'NONE', ( #131 ) ) ;
#67 = PERSON_AND_ORGANIZATION ( #160, #78 ) ;
#68 = EDGE_LOOP ( 'NONE', ( #38 ) ) ;
#69 = APPROVAL ( #155, 'UNSPECIFIED' ) ;
#70 = DIRECTION ( 'NONE',  ( 0.0000000000000000000, 0.0000000000000000000, 1.000000000000000000 ) ) ;
#71 = ADVANCED_FACE ( 'NONE', ( #28, #9 ), #165, .T. ) ;
#72 =( NAMED_UNIT ( * ) SI_UNIT ( $, .STERADIAN. ) SOLID_ANGLE_UNIT ( ) );
#73 = SECURITY_CLASSIFICATION ( '', '', #124 ) ;
#74 = PLANE ( 'NONE',  #11 ) ;
#75 = DIRECTION ( 'NONE',  ( 3.491481338843133355E-15, -2.004145771789224203E-16, 1.000000000000000000 ) ) ;
#76 = PERSON_AND_ORGANIZATION_ROLE ( 'design_supplier' ) ;
#77 = EDGE_LOOP ( 'NONE', ( #52 ) ) ;
#78 = ORGANIZATION ( 'UNSPECIFIED', 'UNSPECIFIED', '' ) ;
#79 = COORDINATED_UNIVERSAL_TIME_OFFSET ( 1, 0, .AHEAD. ) ;
#80 = DATE_TIME_ROLE ( 'creation_date' ) ;
#81 = DIRECTION ( 'NONE',  ( -6.997437562523445693E-31, -1.000000000000000000, -2.004145771789224203E-16 ) ) ;
#82 = AXIS2_PLACEMENT_3D ( 'NONE', #93, #32, #91 ) ;
#83 = APPROVAL_DATE_TIME ( #33, #69 ) ;
#84 = MECHANICAL_CONTEXT ( 'NONE', #166, 'mechanical' ) ;
#85 = APPROVAL_ROLE ( '' ) ;
#86 = FACE_OUTER_BOUND ( 'NONE', #68, .T. ) ;
#87 = LOCAL_TIME ( 13, 58, 42.00000000000000000, #121 ) ;
#88 = FACE_OUTER_BOUND ( 'NONE', #8, .T. ) ;
#89 = CALENDAR_DATE ( 2021, 6, 12 ) ;
#90 = AXIS2_PLACEMENT_3D ( 'NONE', #53, #149, #151 ) ;
#91 = DIRECTION ( 'NONE',  ( 6.997437562523445693E-31, 1.000000000000000000, 2.004145771789224203E-16 ) ) ;
#92 =( NAMED_UNIT ( * ) PLANE_ANGLE_UNIT ( ) SI_UNIT ( $, .RADIAN. ) );
#93 = CARTESIAN_POINT ( 'NONE',  ( -5.597950050018755853E-30, 3.213280219664499957E-31, -1.603316617431379363E-15 ) ) ;
#94 = AXIS2_PLACEMENT_3D ( 'NONE', #101, #51, #102 ) ;
#95 = APPLICATION_PROTOCOL_DEFINITION ( 'international standard', 'config_control_design', 1994, #166 ) ;
#96 = LOCAL_TIME ( 13, 58, 42.00000000000000000, #145 ) ;
#97 = DESIGN_CONTEXT ( 'detailed design', #114, 'design' ) ;
#98 = FACE_OUTER_BOUND ( 'NONE', #140, .T. ) ;
#99 = DATE_TIME_ROLE ( 'classification_date' ) ;
#100 = EDGE_CURVE ( 'NONE', #109, #109, #4, .T. ) ;
#101 = CARTESIAN_POINT ( 'NONE',  ( -2.204192832194885126E-29, 1.265229086492896935E-30, -6.313059181136056167E-15 ) ) ;
#102 = DIRECTION ( 'NONE',  ( 6.997437562523445693E-31, 1.000000000000000000, 2.004145771789224203E-16 ) ) ;
#103 = EDGE_CURVE ( 'NONE', #15, #15, #5, .T. ) ;
#104 = PERSON_AND_ORGANIZATION_ROLE ( 'design_owner' ) ;
#105 = DIRECTION ( 'NONE',  ( -3.491481338843133355E-15, 2.004145771789224203E-16, -1.000000000000000000 ) ) ;
#106 = CIRCLE ( 'NONE', #37, 8.000000000000001776 ) ;
#107 = FACE_OUTER_BOUND ( 'NONE', #118, .T. ) ;
#108 = DIRECTION ( 'NONE',  ( 1.000000000000000000, 0.0000000000000000000, 0.0000000000000000000 ) ) ;
#109 = VERTEX_POINT ( 'NONE', #119 ) ;
#110 = DATE_AND_TIME ( #161, #63 ) ;
#111 = CC_DESIGN_PERSON_AND_ORGANIZATION_ASSIGNMENT ( #31, #47, ( #132 ) ) ;
#112 = ORIENTED_EDGE ( 'NONE', *, *, #100, .F. ) ;
#113 = DATE_AND_TIME ( #21, #148 ) ;
#114 = APPLICATION_CONTEXT ( 'configuration controlled 3d designs of mechanical parts and assemblies' ) ;
#115 = MANIFOLD_SOLID_BREP ( 'Corps-Déplacer/Copier1', #34 ) ;
#116 = FACE_BOUND ( 'NONE', #77, .T. ) ;
#117 = EDGE_LOOP ( 'NONE', ( #10 ) ) ;
#118 = EDGE_LOOP ( 'NONE', ( #112 ) ) ;
#119 = CARTESIAN_POINT ( 'NONE',  ( 1.745740669421566678E-14, 31.50000000000000000, 5.000000000000000000 ) ) ;
#120 = VERTEX_POINT ( 'NONE', #158 ) ;
#121 = COORDINATED_UNIVERSAL_TIME_OFFSET ( 1, 0, .AHEAD. ) ;
#122 = COORDINATED_UNIVERSAL_TIME_OFFSET ( 1, 0, .AHEAD. ) ;
#123 = PRODUCT_RELATED_PRODUCT_CATEGORY ( 'detail', '', ( #39 ) ) ;
#124 = SECURITY_CLASSIFICATION_LEVEL ( 'unclassified' ) ;
#125 = PRODUCT_DEFINITION ( 'UNKNOWN', '', #132, #97 ) ;
#126 = CIRCLE ( 'NONE', #94, 31.50000000000000000 ) ;
#127 = CC_DESIGN_SECURITY_CLASSIFICATION ( #73, ( #132 ) ) ;
#128 = APPROVAL_STATUS ( 'not_yet_approved' ) ;
#129 = DIRECTION ( 'NONE',  ( -3.491481338843133355E-15, 2.004145771789224203E-16, -1.000000000000000000 ) ) ;
#130 =( GEOMETRIC_REPRESENTATION_CONTEXT ( 3 ) GLOBAL_UNCERTAINTY_ASSIGNED_CONTEXT ( ( #65 ) ) GLOBAL_UNIT_ASSIGNED_CONTEXT ( ( #30, #92, #72 ) ) REPRESENTATION_CONTEXT ( 'NONE', 'WORKASPACE' ) );
#131 = ORIENTED_EDGE ( 'NONE', *, *, #152, .T. ) ;
#132 = PRODUCT_DEFINITION_FORMATION_WITH_SPECIFIED_SOURCE ( 'ANY', '', #39, .NOT_KNOWN. ) ;
#133 = CARTESIAN_POINT ( 'NONE',  ( 1.745740669421564469E-14, -1.002072885894610869E-15, 4.999999999999993783 ) ) ;
#134 = APPROVAL ( #128, 'UNSPECIFIED' ) ;
#135 = PERSON_AND_ORGANIZATION_ROLE ( 'creator' ) ;
#136 = CARTESIAN_POINT ( 'NONE',  ( 0.0000000000000000000, 0.0000000000000000000, 0.0000000000000000000 ) ) ;
#137 = PERSON_AND_ORGANIZATION_ROLE ( 'classification_officer' ) ;
#138 = CYLINDRICAL_SURFACE ( 'NONE', #153, 8.000000000000000000 ) ;
#139 = CC_DESIGN_APPROVAL ( #163, ( #132 ) ) ;
#140 = EDGE_LOOP ( 'NONE', ( #26 ) ) ;
#141 = SHAPE_DEFINITION_REPRESENTATION ( #36, #58 ) ;
#142 = PERSON_AND_ORGANIZATION ( #160, #78 ) ;
#143 = DATE_AND_TIME ( #43, #49 ) ;
#144 = CC_DESIGN_PERSON_AND_ORGANIZATION_ASSIGNMENT ( #67, #76, ( #132 ) ) ;
#145 = COORDINATED_UNIVERSAL_TIME_OFFSET ( 1, 0, .AHEAD. ) ;
#146 = ADVANCED_FACE ( 'NONE', ( #159, #107 ), #74, .T. ) ;
#147 = PERSON_AND_ORGANIZATION ( #160, #78 ) ;
#148 = LOCAL_TIME ( 13, 58, 42.00000000000000000, #64 ) ;
#149 = DIRECTION ( 'NONE',  ( -3.491481338843133355E-15, 2.004145771789224203E-16, -1.000000000000000000 ) ) ;
#150 = PERSON_AND_ORGANIZATION ( #160, #78 ) ;
#151 = DIRECTION ( 'NONE',  ( 6.997437562523445693E-31, 1.000000000000000000, 2.004145771789224203E-16 ) ) ;
#152 = EDGE_CURVE ( 'NONE', #45, #45, #106, .T. ) ;
#153 = AXIS2_PLACEMENT_3D ( 'NONE', #23, #129, #6 ) ;
#154 = CARTESIAN_POINT ( 'NONE',  ( 0.0000000000000000000, 0.0000000000000000000, 0.0000000000000000000 ) ) ;
#155 = APPROVAL_STATUS ( 'not_yet_approved' ) ;
#156 = APPLICATION_PROTOCOL_DEFINITION ( 'international standard', 'config_control_design', 1994, #114 ) ;
#157 = AXIS2_PLACEMENT_3D ( 'NONE', #154, #41, #29 ) ;
#158 = CARTESIAN_POINT ( 'NONE',  ( 2.736911063134408342E-45, 31.50000000000000000, 0.0000000000000000000 ) ) ;
#159 = FACE_BOUND ( 'NONE', #66, .T. ) ;
#160 = PERSON ( 'UNSPECIFIED', 'UNSPECIFIED', 'UNSPECIFIED', ('UNSPECIFIED'), ('UNSPECIFIED'), ('UNSPECIFIED') ) ;
#161 = CALENDAR_DATE ( 2021, 6, 12 ) ;
#162 = APPROVAL_PERSON_ORGANIZATION ( #150, #134, #85 ) ;
#163 = APPROVAL ( #48, 'UNSPECIFIED' ) ;
#164 = PLANE ( 'NONE',  #90 ) ;
#165 = CYLINDRICAL_SURFACE ( 'NONE', #157, 31.50000000000000000 ) ;
#166 = APPLICATION_CONTEXT ( 'configuration controlled 3d designs of mechanical parts and assemblies' ) ;
#167 = CARTESIAN_POINT ( 'NONE',  ( 1.745740669421566362E-14, -1.002072885894611855E-15, 4.999999999999999112 ) ) ;
#168 = APPROVAL_PERSON_ORGANIZATION ( #60, #69, #12 ) ;
#169 = CARTESIAN_POINT ( 'NONE',  ( 6.842277657836020854E-46, 8.000000000000000000, 0.0000000000000000000 ) ) ;
ENDSEC;
END-ISO-10303-21;
