ISO-10303-21;
HEADER;
FILE_DESCRIPTION (( 'STEP AP203' ),
    '1' );
FILE_NAME ('31880.step',
    '2021-12-06T12:58:42',
    ( '' ),
    ( '' ),
    'SwSTEP 2.0',
    'SolidWorks 2019',
    '' );
FILE_SCHEMA (( 'CONFIG_CONTROL_DESIGN' ));
ENDSEC;

DATA;
#1 = PERSON_AND_ORGANIZATION ( #134, #89 ) ;
#2 = EDGE_LOOP ( 'NONE', ( #17 ) ) ;
#3 = PERSON_AND_ORGANIZATION_ROLE ( 'creator' ) ;
#4 = EDGE_CURVE ( 'NONE', #27, #27, #116, .T. ) ;
#5 = PERSON_AND_ORGANIZATION_ROLE ( 'classification_officer' ) ;
#6 = APPLICATION_PROTOCOL_DEFINITION ( 'international standard', 'config_control_design', 1994, #35 ) ;
#7 = PRODUCT_DEFINITION_SHAPE ( 'NONE', 'NONE',  #75 ) ;
#8 = DIRECTION ( 'NONE',  ( -3.491481338843133355E-15, 2.694222958124176020E-16, -1.000000000000000000 ) ) ;
#9 = EDGE_LOOP ( 'NONE', ( #158 ) ) ;
#10 = FACE_OUTER_BOUND ( 'NONE', #9, .T. ) ;
#11 = ORIENTED_EDGE ( 'NONE', *, *, #143, .T. ) ;
#12 = CC_DESIGN_PERSON_AND_ORGANIZATION_ASSIGNMENT ( #71, #3, ( #75 ) ) ;
#13 = PERSON_AND_ORGANIZATION ( #134, #89 ) ;
#14 = CC_DESIGN_APPROVAL ( #50, ( #75 ) ) ;
#15 = APPROVAL_STATUS ( 'not_yet_approved' ) ;
#16 = APPROVAL ( #48, 'UNSPECIFIED' ) ;
#17 = ORIENTED_EDGE ( 'NONE', *, *, #37, .T. ) ;
#18 = PERSON_AND_ORGANIZATION ( #134, #89 ) ;
#19 = CC_DESIGN_PERSON_AND_ORGANIZATION_ASSIGNMENT ( #96, #5, ( #22 ) ) ;
#20 = PERSON_AND_ORGANIZATION_ROLE ( 'design_owner' ) ;
#21 = AXIS2_PLACEMENT_3D ( 'NONE', #24, #121, #103 ) ;
#22 = SECURITY_CLASSIFICATION ( '', '', #126 ) ;
#23 = CC_DESIGN_PERSON_AND_ORGANIZATION_ASSIGNMENT ( #84, #162, ( #104 ) ) ;
#24 = CARTESIAN_POINT ( 'NONE',  ( 1.745740669421557803E-15, 6.499999999999999112, 0.4999999999999975020 ) ) ;
#25 = CC_DESIGN_APPROVAL ( #16, ( #104 ) ) ;
#26 = DESIGN_CONTEXT ( 'detailed design', #54, 'design' ) ;
#27 = VERTEX_POINT ( 'NONE', #108 ) ;
#28 = DIRECTION ( 'NONE',  ( 9.481501264675624009E-31, 1.000000000000000000, 2.668805347656626678E-16 ) ) ;
#29 = ADVANCED_BREP_SHAPE_REPRESENTATION ( '31880', ( #115, #38 ), #141 ) ;
#30 = ADVANCED_FACE ( 'NONE', ( #160, #10 ), #67, .T. ) ;
#31 = EDGE_LOOP ( 'NONE', ( #61 ) ) ;
#32 = APPLICATION_PROTOCOL_DEFINITION ( 'international standard', 'config_control_design', 1994, #54 ) ;
#33 = DATE_AND_TIME ( #150, #151 ) ;
#34 = PERSON_AND_ORGANIZATION ( #134, #89 ) ;
#35 = APPLICATION_CONTEXT ( 'configuration controlled 3d designs of mechanical parts and assemblies' ) ;
#36 = PRODUCT ( '31880', '31880', '', ( #60 ) ) ;
#37 = EDGE_CURVE ( 'NONE', #91, #91, #144, .T. ) ;
#38 = AXIS2_PLACEMENT_3D ( 'NONE', #137, #82, #128 ) ;
#39 = PRODUCT_RELATED_PRODUCT_CATEGORY ( 'detail', '', ( #36 ) ) ;
#40 = DIRECTION ( 'NONE',  ( 9.398538128609710963E-31, 1.000000000000000000, 2.688821387764050996E-16 ) ) ;
#41 = CYLINDRICAL_SURFACE ( 'NONE', #110, 6.499999999999999112 ) ;
#42 = CC_DESIGN_DATE_AND_TIME_ASSIGNMENT ( #49, #100, ( #22 ) ) ;
#43 = CARTESIAN_POINT ( 'NONE',  ( 0.0000000000000000000, 0.0000000000000000000, 0.0000000000000000000 ) ) ;
#44 = CARTESIAN_POINT ( 'NONE',  ( 1.745740669421560564E-15, -1.347111479062083573E-16, 0.4999999999999982792 ) ) ;
#45 = PLANE ( 'NONE',  #129 ) ;
#46 = PERSON_AND_ORGANIZATION ( #134, #89 ) ;
#47 = EDGE_LOOP ( 'NONE', ( #11 ) ) ;
#48 = APPROVAL_STATUS ( 'not_yet_approved' ) ;
#49 = DATE_AND_TIME ( #113, #159 ) ;
#50 = APPROVAL ( #15, 'UNSPECIFIED' ) ;
#51 = CC_DESIGN_APPROVAL ( #119, ( #22 ) ) ;
#52 = CIRCLE ( 'NONE', #142, 25.00000000000000000 ) ;
#53 = DIRECTION ( 'NONE',  ( 9.406829180973305782E-31, 1.000000000000000000, 2.694222958124176020E-16 ) ) ;
#54 = APPLICATION_CONTEXT ( 'configuration controlled 3d designs of mechanical parts and assemblies' ) ;
#55 = EDGE_LOOP ( 'NONE', ( #80 ) ) ;
#56 = LOCAL_TIME ( 13, 58, 42.00000000000000000, #163 ) ;
#57 = FACE_OUTER_BOUND ( 'NONE', #31, .T. ) ;
#58 = DIRECTION ( 'NONE',  ( 9.406829180973304030E-31, 1.000000000000000000, 2.694222958124175527E-16 ) ) ;
#59 = CARTESIAN_POINT ( 'NONE',  ( 1.745740669421566678E-15, 25.00000000000000000, 0.5000000000000000000 ) ) ;
#60 = MECHANICAL_CONTEXT ( 'NONE', #35, 'mechanical' ) ;
#61 = ORIENTED_EDGE ( 'NONE', *, *, #4, .T. ) ;
#62 = DATE_AND_TIME ( #98, #86 ) ;
#63 = DATE_AND_TIME ( #164, #56 ) ;
#64 = COORDINATED_UNIVERSAL_TIME_OFFSET ( 1, 0, .AHEAD. ) ;
#65 = UNCERTAINTY_MEASURE_WITH_UNIT (LENGTH_MEASURE( 1.000000000000000082E-05 ), #131, 'distance_accuracy_value', 'NONE');
#66 = APPROVAL_PERSON_ORGANIZATION ( #13, #50, #73 ) ;
#67 = PLANE ( 'NONE',  #21 ) ;
#68 = DIRECTION ( 'NONE',  ( 9.406829180973304030E-31, 1.000000000000000000, 2.694222958124176020E-16 ) ) ;
#69 =( NAMED_UNIT ( * ) SI_UNIT ( $, .STERADIAN. ) SOLID_ANGLE_UNIT ( ) );
#70 = DIRECTION ( 'NONE',  ( -3.491481338843133355E-15, 2.694222958124176020E-16, -1.000000000000000000 ) ) ;
#71 = PERSON_AND_ORGANIZATION ( #134, #89 ) ;
#72 = CC_DESIGN_SECURITY_CLASSIFICATION ( #22, ( #104 ) ) ;
#73 = APPROVAL_ROLE ( '' ) ;
#74 = COORDINATED_UNIVERSAL_TIME_OFFSET ( 1, 0, .AHEAD. ) ;
#75 = PRODUCT_DEFINITION ( 'UNKNOWN', '', #104, #26 ) ;
#76 = CC_DESIGN_PERSON_AND_ORGANIZATION_ASSIGNMENT ( #46, #139, ( #104 ) ) ;
#77 = FACE_OUTER_BOUND ( 'NONE', #47, .T. ) ;
#78 = VERTEX_POINT ( 'NONE', #59 ) ;
#79 = DIRECTION ( 'NONE',  ( -3.491481338843133355E-15, 2.694222958124176020E-16, -1.000000000000000000 ) ) ;
#80 = ORIENTED_EDGE ( 'NONE', *, *, #97, .T. ) ;
#81 = SHAPE_DEFINITION_REPRESENTATION ( #7, #29 ) ;
#82 = DIRECTION ( 'NONE',  ( 0.0000000000000000000, 0.0000000000000000000, 1.000000000000000000 ) ) ;
#83 = CLOSED_SHELL ( 'NONE', ( #152, #107, #30, #161 ) ) ;
#84 = PERSON_AND_ORGANIZATION ( #134, #89 ) ;
#85 = APPROVAL_STATUS ( 'not_yet_approved' ) ;
#86 = LOCAL_TIME ( 13, 58, 42.00000000000000000, #109 ) ;
#87 = LOCAL_TIME ( 13, 58, 42.00000000000000000, #74 ) ;
#88 = ORIENTED_EDGE ( 'NONE', *, *, #37, .F. ) ;
#89 = ORGANIZATION ( 'UNSPECIFIED', 'UNSPECIFIED', '' ) ;
#90 = DIRECTION ( 'NONE',  ( 9.406829180973305782E-31, 1.000000000000000000, 2.694222958124176020E-16 ) ) ;
#91 = VERTEX_POINT ( 'NONE', #155 ) ;
#92 = CARTESIAN_POINT ( 'NONE',  ( 0.0000000000000000000, 0.0000000000000000000, 0.0000000000000000000 ) ) ;
#93 = CC_DESIGN_PERSON_AND_ORGANIZATION_ASSIGNMENT ( #18, #20, ( #36 ) ) ;
#94 = AXIS2_PLACEMENT_3D ( 'NONE', #167, #79, #68 ) ;
#95 = CARTESIAN_POINT ( 'NONE',  ( -2.351707295243326130E-29, 1.814709337020846633E-30, -6.735557395310440248E-15 ) ) ;
#96 = PERSON_AND_ORGANIZATION ( #134, #89 ) ;
#97 = EDGE_CURVE ( 'NONE', #156, #156, #52, .T. ) ;
#98 = CALENDAR_DATE ( 2021, 6, 12 ) ;
#99 = DATE_TIME_ROLE ( 'creation_date' ) ;
#100 = DATE_TIME_ROLE ( 'classification_date' ) ;
#101 = APPROVAL_PERSON_ORGANIZATION ( #1, #16, #112 ) ;
#102 = AXIS2_PLACEMENT_3D ( 'NONE', #44, #8, #28 ) ;
#103 = DIRECTION ( 'NONE',  ( -9.406829180973305782E-31, -1.000000000000000000, -2.694222958124176020E-16 ) ) ;
#104 = PRODUCT_DEFINITION_FORMATION_WITH_SPECIFIED_SOURCE ( 'ANY', '', #36, .NOT_KNOWN. ) ;
#105 = DIRECTION ( 'NONE',  ( -3.491481338843133355E-15, 2.694222958124176020E-16, -1.000000000000000000 ) ) ;
#106 = FACE_OUTER_BOUND ( 'NONE', #146, .T. ) ;
#107 = ADVANCED_FACE ( 'NONE', ( #77, #120 ), #118, .T. ) ;
#108 = CARTESIAN_POINT ( 'NONE',  ( 0.0000000000000000000, 6.500000000000000000, 0.0000000000000000000 ) ) ;
#109 = COORDINATED_UNIVERSAL_TIME_OFFSET ( 1, 0, .AHEAD. ) ;
#110 = AXIS2_PLACEMENT_3D ( 'NONE', #43, #145, #58 ) ;
#111 = APPROVAL_DATE_TIME ( #33, #16 ) ;
#112 = APPROVAL_ROLE ( '' ) ;
#113 = CALENDAR_DATE ( 2021, 6, 12 ) ;
#114 = CALENDAR_DATE ( 2021, 6, 12 ) ;
#115 = MANIFOLD_SOLID_BREP ( 'Corps-Déplacer/Copier1', #83 ) ;
#116 = CIRCLE ( 'NONE', #94, 6.500000000000000000 ) ;
#117 = ORIENTED_EDGE ( 'NONE', *, *, #4, .F. ) ;
#118 = CYLINDRICAL_SURFACE ( 'NONE', #165, 25.00000000000000000 ) ;
#119 = APPROVAL ( #85, 'UNSPECIFIED' ) ;
#120 = FACE_OUTER_BOUND ( 'NONE', #157, .T. ) ;
#121 = DIRECTION ( 'NONE',  ( 3.491481338843133355E-15, -2.694222958124176020E-16, 1.000000000000000000 ) ) ;
#122 = DIRECTION ( 'NONE',  ( 9.406829180973305782E-31, 1.000000000000000000, 2.694222958124176020E-16 ) ) ;
#123 = DATE_AND_TIME ( #114, #87 ) ;
#124 = APPROVAL_PERSON_ORGANIZATION ( #34, #119, #140 ) ;
#125 = APPROVAL_DATE_TIME ( #63, #50 ) ;
#126 = SECURITY_CLASSIFICATION_LEVEL ( 'unclassified' ) ;
#127 = ORIENTED_EDGE ( 'NONE', *, *, #97, .F. ) ;
#128 = DIRECTION ( 'NONE',  ( 1.000000000000000000, 0.0000000000000000000, 0.0000000000000000000 ) ) ;
#129 = AXIS2_PLACEMENT_3D ( 'NONE', #148, #132, #90 ) ;
#130 = CC_DESIGN_DATE_AND_TIME_ASSIGNMENT ( #123, #99, ( #75 ) ) ;
#131 =( LENGTH_UNIT ( ) NAMED_UNIT ( * ) SI_UNIT ( .MILLI., .METRE. ) );
#132 = DIRECTION ( 'NONE',  ( -3.491481338843133355E-15, 2.694222958124176020E-16, -1.000000000000000000 ) ) ;
#133 =( NAMED_UNIT ( * ) PLANE_ANGLE_UNIT ( ) SI_UNIT ( $, .RADIAN. ) );
#134 = PERSON ( 'UNSPECIFIED', 'UNSPECIFIED', 'UNSPECIFIED', ('UNSPECIFIED'), ('UNSPECIFIED'), ('UNSPECIFIED') ) ;
#135 = FACE_OUTER_BOUND ( 'NONE', #55, .T. ) ;
#136 = APPROVAL_DATE_TIME ( #62, #119 ) ;
#137 = CARTESIAN_POINT ( 'NONE',  ( 0.0000000000000000000, 0.0000000000000000000, 0.0000000000000000000 ) ) ;
#138 = EDGE_LOOP ( 'NONE', ( #117 ) ) ;
#139 = PERSON_AND_ORGANIZATION_ROLE ( 'design_supplier' ) ;
#140 = APPROVAL_ROLE ( '' ) ;
#141 =( GEOMETRIC_REPRESENTATION_CONTEXT ( 3 ) GLOBAL_UNCERTAINTY_ASSIGNED_CONTEXT ( ( #65 ) ) GLOBAL_UNIT_ASSIGNED_CONTEXT ( ( #131, #133, #69 ) ) REPRESENTATION_CONTEXT ( 'NONE', 'WORKASPACE' ) );
#142 = AXIS2_PLACEMENT_3D ( 'NONE', #95, #168, #53 ) ;
#143 = EDGE_CURVE ( 'NONE', #78, #78, #166, .T. ) ;
#144 = CIRCLE ( 'NONE', #102, 6.499999999999999112 ) ;
#145 = DIRECTION ( 'NONE',  ( -3.491481338843133355E-15, 2.694222958124176020E-16, -1.000000000000000000 ) ) ;
#146 = EDGE_LOOP ( 'NONE', ( #88 ) ) ;
#147 = CARTESIAN_POINT ( 'NONE',  ( 2.736911063134408342E-45, 25.00000000000000000, 0.0000000000000000000 ) ) ;
#148 = CARTESIAN_POINT ( 'NONE',  ( -8.701316992400308111E-30, 6.500000000000000000, -2.492156236264862868E-15 ) ) ;
#149 = COORDINATED_UNIVERSAL_TIME_OFFSET ( 1, 0, .AHEAD. ) ;
#150 = CALENDAR_DATE ( 2021, 6, 12 ) ;
#151 = LOCAL_TIME ( 13, 58, 42.00000000000000000, #149 ) ;
#152 = ADVANCED_FACE ( 'NONE', ( #135, #169 ), #45, .T. ) ;
#153 = CARTESIAN_POINT ( 'NONE',  ( 1.745740669421543209E-15, -1.347111479062070014E-16, 0.4999999999999932832 ) ) ;
#154 = AXIS2_PLACEMENT_3D ( 'NONE', #153, #105, #40 ) ;
#155 = CARTESIAN_POINT ( 'NONE',  ( 1.745740669421566678E-15, 6.499999999999999112, 0.5000000000000000000 ) ) ;
#156 = VERTEX_POINT ( 'NONE', #147 ) ;
#157 = EDGE_LOOP ( 'NONE', ( #127 ) ) ;
#158 = ORIENTED_EDGE ( 'NONE', *, *, #143, .F. ) ;
#159 = LOCAL_TIME ( 13, 58, 42.00000000000000000, #64 ) ;
#160 = FACE_BOUND ( 'NONE', #2, .T. ) ;
#161 = ADVANCED_FACE ( 'NONE', ( #57, #106 ), #41, .F. ) ;
#162 = PERSON_AND_ORGANIZATION_ROLE ( 'creator' ) ;
#163 = COORDINATED_UNIVERSAL_TIME_OFFSET ( 1, 0, .AHEAD. ) ;
#164 = CALENDAR_DATE ( 2021, 6, 12 ) ;
#165 = AXIS2_PLACEMENT_3D ( 'NONE', #92, #70, #122 ) ;
#166 = CIRCLE ( 'NONE', #154, 25.00000000000000000 ) ;
#167 = CARTESIAN_POINT ( 'NONE',  ( -6.114438967632647882E-30, 4.718244276254200159E-31, -1.751244922780714315E-15 ) ) ;
#168 = DIRECTION ( 'NONE',  ( -3.491481338843133355E-15, 2.694222958124176020E-16, -1.000000000000000000 ) ) ;
#169 = FACE_BOUND ( 'NONE', #138, .T. ) ;
ENDSEC;
END-ISO-10303-21;
