ISO-10303-21;
HEADER;
FILE_DESCRIPTION (( 'STEP AP203' ),
    '1' );
FILE_NAME ('318623.step',
    '2023-09-27T05:46:07',
    ( '' ),
    ( '' ),
    'SwSTEP 2.0',
    'SolidWorks 2022',
    '' );
FILE_SCHEMA (( 'CONFIG_CONTROL_DESIGN' ));
ENDSEC;

DATA;
#1 = DATE_TIME_ROLE ( 'creation_date' ) ;
#2 = PERSON_AND_ORGANIZATION_ROLE ( 'classification_officer' ) ;
#3 = AXIS2_PLACEMENT_3D ( 'NONE', #74, #223, #66 ) ;
#4 = CC_DESIGN_SECURITY_CLASSIFICATION ( #234, ( #161 ) ) ;
#5 = PRODUCT_DEFINITION ( 'UNKNOWN', '', #161, #21 ) ;
#6 = APPROVAL_STATUS ( 'not_yet_approved' ) ;
#7 = EDGE_LOOP ( 'NONE', ( #175 ) ) ;
#8 = CC_DESIGN_DATE_AND_TIME_ASSIGNMENT ( #192, #1, ( #5 ) ) ;
#9 = CALENDAR_DATE ( 2023, 27, 9 ) ;
#10 = ORIENTED_EDGE ( 'NONE', *, *, #159, .T. ) ;
#11 = FACE_OUTER_BOUND ( 'NONE', #146, .T. ) ;
#12 = FACE_BOUND ( 'NONE', #95, .T. ) ;
#13 = DIRECTION ( 'NONE',  ( 1.000000000000000000, 0.000000000000000000, -3.212450881438538552E-15 ) ) ;
#14 = CARTESIAN_POINT ( 'NONE',  ( 1.316288464743861212E-13, 0.000000000000000000, 37.69999999999999574 ) ) ;
#15 = APPLICATION_CONTEXT ( 'configuration controlled 3d designs of mechanical parts and assemblies' ) ;
#16 = AXIS2_PLACEMENT_3D ( 'NONE', #51, #35, #179 ) ;
#17 = CARTESIAN_POINT ( 'NONE',  ( 1.326762908760390423E-13, 0.000000000000000000, 38.00000000000000000 ) ) ;
#18 = CIRCLE ( 'NONE', #168, 0.1350000000000000089 ) ;
#19 = EDGE_LOOP ( 'NONE', ( #236 ) ) ;
#20 = CARTESIAN_POINT ( 'NONE',  ( 1.200000000000125855, 0.000000000000000000, 37.99999999999999289 ) ) ;
#21 = DESIGN_CONTEXT ( 'detailed design', #202, 'design' ) ;
#22 = CARTESIAN_POINT ( 'NONE',  ( 0.1350000000000000089, 0.000000000000000000, -4.713499807438229241E-16 ) ) ;
#23 =( NAMED_UNIT ( * ) SI_UNIT ( $, .STERADIAN. ) SOLID_ANGLE_UNIT ( ) );
#24 = PERSON_AND_ORGANIZATION ( #102, #249 ) ;
#25 = ADVANCED_FACE ( 'NONE', ( #185 ), #32, .F. ) ;
#26 = PERSON_AND_ORGANIZATION ( #102, #249 ) ;
#27 = ADVANCED_FACE ( 'NONE', ( #176, #198 ), #177, .T. ) ;
#28 = CIRCLE ( 'NONE', #194, 1.199999999999993072 ) ;
#29 = CARTESIAN_POINT ( 'NONE',  ( 0.1350000000000003975, 0.000000000000000000, 0.1106495457622378720 ) ) ;
#30 = CC_DESIGN_APPROVAL ( #77, ( #234 ) ) ;
#31 = APPROVAL_DATE_TIME ( #47, #77 ) ;
#32 = PLANE ( 'NONE',  #93 ) ;
#33 = EDGE_LOOP ( 'NONE', ( #197 ) ) ;
#34 = ORIENTED_EDGE ( 'NONE', *, *, #141, .T. ) ;
#35 = DIRECTION ( 'NONE',  ( 3.491481338843133355E-15, -0.000000000000000000, 1.000000000000000000 ) ) ;
#36 = FACE_BOUND ( 'NONE', #115, .T. ) ;
#37 = EDGE_LOOP ( 'NONE', ( #107 ) ) ;
#38 = ADVANCED_FACE ( 'NONE', ( #111, #36 ), #56, .T. ) ;
#39 = VERTEX_POINT ( 'NONE', #120 ) ;
#40 = CC_DESIGN_APPROVAL ( #65, ( #5 ) ) ;
#41 = DIRECTION ( 'NONE',  ( 1.000000000000000000, 0.000000000000000000, -3.511336581345099552E-15 ) ) ;
#42 = DIRECTION ( 'NONE',  ( 0.000000000000000000, 0.000000000000000000, 1.000000000000000000 ) ) ;
#43 = CARTESIAN_POINT ( 'NONE',  ( 0.000000000000000000, 0.000000000000000000, 0.000000000000000000 ) ) ;
#44 = CALENDAR_DATE ( 2023, 27, 9 ) ;
#45 = APPROVAL_STATUS ( 'not_yet_approved' ) ;
#46 = CONICAL_SURFACE ( 'NONE', #101, 1.499999999999996225, 0.7853981633974504994 ) ;
#47 = DATE_AND_TIME ( #9, #104 ) ;
#48 = DIRECTION ( 'NONE',  ( 3.491481338843133355E-15, -0.000000000000000000, 1.000000000000000000 ) ) ;
#49 = EDGE_LOOP ( 'NONE', ( #90 ) ) ;
#50 = MANIFOLD_SOLID_BREP ( 'Corps-Déplacer/Copier1', #250 ) ;
#51 = CARTESIAN_POINT ( 'NONE',  ( 3.863308241803245190E-16, 0.000000000000000000, 0.1106495457622383438 ) ) ;
#52 = ORIENTED_EDGE ( 'NONE', *, *, #189, .F. ) ;
#53 = DIRECTION ( 'NONE',  ( 3.491481338843133355E-15, -0.000000000000000000, 1.000000000000000000 ) ) ;
#54 = DIRECTION ( 'NONE',  ( -1.000000000000000000, 0.000000000000000000, 3.491481338843133355E-15 ) ) ;
#55 = DIRECTION ( 'NONE',  ( 1.000000000000000000, 0.000000000000000000, -4.625929269271491633E-15 ) ) ;
#56 = CONICAL_SURFACE ( 'NONE', #143, 0.1690741737109299203, 0.2617993877991428575 ) ;
#57 = ADVANCED_FACE ( 'NONE', ( #138, #260 ), #268, .T. ) ;
#58 = VERTEX_POINT ( 'NONE', #97 ) ;
#59 = AXIS2_PLACEMENT_3D ( 'NONE', #157, #245, #55 ) ;
#60 = DIRECTION ( 'NONE',  ( 3.491481338843133355E-15, -0.000000000000000000, 1.000000000000000000 ) ) ;
#61 = PERSON_AND_ORGANIZATION ( #102, #249 ) ;
#62 = APPROVAL_STATUS ( 'not_yet_approved' ) ;
#63 = PERSON_AND_ORGANIZATION ( #102, #249 ) ;
#64 = PERSON_AND_ORGANIZATION_ROLE ( 'design_supplier' ) ;
#65 = APPROVAL ( #6, 'UNSPECIFIED' ) ;
#66 = DIRECTION ( 'NONE',  ( -1.000000000000000000, 0.000000000000000000, 3.511336581345099552E-15 ) ) ;
#67 = DIRECTION ( 'NONE',  ( 1.000000000000000000, 0.000000000000000000, -3.491481338843132566E-15 ) ) ;
#68 = FACE_BOUND ( 'NONE', #49, .T. ) ;
#69 = CIRCLE ( 'NONE', #142, 0.2200000000000000011 ) ;
#70 = DIRECTION ( 'NONE',  ( -3.491481338843133355E-15, 0.000000000000000000, -1.000000000000000000 ) ) ;
#71 = CIRCLE ( 'NONE', #16, 0.1350000000000000366 ) ;
#72 = DIRECTION ( 'NONE',  ( 1.000000000000000000, 0.000000000000000000, -3.491481338843133750E-15 ) ) ;
#73 = EDGE_LOOP ( 'NONE', ( #217 ) ) ;
#74 = CARTESIAN_POINT ( 'NONE',  ( 2.149871704579172984E-16, 0.000000000000000000, 0.06157477288111501412 ) ) ;
#75 = DIRECTION ( 'NONE',  ( 1.000000000000000000, 0.000000000000000000, -3.491481338843132566E-15 ) ) ;
#76 = CARTESIAN_POINT ( 'NONE',  ( 0.2200000000000001676, 0.000000000000000000, 0.04907477288111562752 ) ) ;
#77 = APPROVAL ( #45, 'UNSPECIFIED' ) ;
#78 = DIRECTION ( 'NONE',  ( 1.000000000000000000, 0.000000000000000000, -3.491481338843133355E-15 ) ) ;
#79 = LOCAL_TIME ( 7, 46, 7.000000000000000000, #144 ) ;
#80 = CIRCLE ( 'NONE', #242, 1.499999999999996225 ) ;
#81 = COORDINATED_UNIVERSAL_TIME_OFFSET ( 1, 0, .AHEAD. ) ;
#82 = DATE_AND_TIME ( #44, #105 ) ;
#83 = ORIENTED_EDGE ( 'NONE', *, *, #110, .T. ) ;
#84 = CC_DESIGN_PERSON_AND_ORGANIZATION_ASSIGNMENT ( #63, #232, ( #161 ) ) ;
#85 = ORIENTED_EDGE ( 'NONE', *, *, #159, .F. ) ;
#86 = DIRECTION ( 'NONE',  ( 1.000000000000000000, 0.000000000000000000, -3.469446951953614189E-15 ) ) ;
#87 = ADVANCED_FACE ( 'NONE', ( #12, #113 ), #241, .T. ) ;
#88 = EDGE_LOOP ( 'NONE', ( #153 ) ) ;
#89 = FACE_OUTER_BOUND ( 'NONE', #199, .T. ) ;
#90 = ORIENTED_EDGE ( 'NONE', *, *, #170, .F. ) ;
#91 = CARTESIAN_POINT ( 'NONE',  ( 4.364351673553917483E-15, 0.000000000000000000, 1.250000000000000222 ) ) ;
#92 = FACE_OUTER_BOUND ( 'NONE', #218, .T. ) ;
#93 = AXIS2_PLACEMENT_3D ( 'NONE', #108, #70, #54 ) ;
#94 = DIRECTION ( 'NONE',  ( 1.000000000000000000, 0.000000000000000000, -3.480535383263125101E-15 ) ) ;
#95 = EDGE_LOOP ( 'NONE', ( #133 ) ) ;
#96 = PRODUCT ( '318623', '318623', '', ( #100 ) ) ;
#97 = CARTESIAN_POINT ( 'NONE',  ( 0.1350000000000040612, 0.000000000000000000, 1.250000000000000666 ) ) ;
#98 = CC_DESIGN_PERSON_AND_ORGANIZATION_ASSIGNMENT ( #215, #2, ( #234 ) ) ;
#99 = EDGE_CURVE ( 'NONE', #201, #201, #80, .T. ) ;
#100 = MECHANICAL_CONTEXT ( 'NONE', #15, 'mechanical' ) ;
#101 = AXIS2_PLACEMENT_3D ( 'NONE', #187, #112, #240 ) ;
#102 = PERSON ( 'UNSPECIFIED', 'UNSPECIFIED', 'UNSPECIFIED', ('UNSPECIFIED'), ('UNSPECIFIED'), ('UNSPECIFIED') ) ;
#103 = CALENDAR_DATE ( 2023, 27, 9 ) ;
#104 = LOCAL_TIME ( 7, 46, 7.000000000000000000, #131 ) ;
#105 = LOCAL_TIME ( 7, 46, 7.000000000000000000, #195 ) ;
#106 = COORDINATED_UNIVERSAL_TIME_OFFSET ( 1, 0, .AHEAD. ) ;
#107 = ORIENTED_EDGE ( 'NONE', *, *, #170, .T. ) ;
#108 = CARTESIAN_POINT ( 'NONE',  ( 1.326762908760390423E-13, 1.199999999999993072, 38.00000000000000000 ) ) ;
#109 = DIRECTION ( 'NONE',  ( 3.491481338843133355E-15, -0.000000000000000000, 1.000000000000000000 ) ) ;
#110 = EDGE_CURVE ( 'NONE', #156, #156, #181, .T. ) ;
#111 = FACE_OUTER_BOUND ( 'NONE', #238, .T. ) ;
#112 = DIRECTION ( 'NONE',  ( -3.491481338843133355E-15, 0.000000000000000000, -1.000000000000000000 ) ) ;
#113 = FACE_OUTER_BOUND ( 'NONE', #150, .T. ) ;
#114 = DIRECTION ( 'NONE',  ( 3.491481338843133355E-15, -0.000000000000000000, 1.000000000000000000 ) ) ;
#115 = EDGE_LOOP ( 'NONE', ( #83 ) ) ;
#116 = AXIS2_PLACEMENT_3D ( 'NONE', #222, #209, #86 ) ;
#117 = ADVANCED_FACE ( 'NONE', ( #92, #208 ), #183, .T. ) ;
#118 = DIRECTION ( 'NONE',  ( 1.000000000000000000, 0.000000000000000000, -3.847549801446991791E-15 ) ) ;
#119 = PRODUCT_DEFINITION_SHAPE ( 'NONE', 'NONE',  #5 ) ;
#120 = CARTESIAN_POINT ( 'NONE',  ( 0.2200000000000002232, 0.000000000000000000, 0.06157477288111424391 ) ) ;
#121 = PLANE ( 'NONE',  #180 ) ;
#122 = CIRCLE ( 'NONE', #251, 0.1349999999999997036 ) ;
#123 = CALENDAR_DATE ( 2023, 27, 9 ) ;
#124 = SECURITY_CLASSIFICATION_LEVEL ( 'unclassified' ) ;
#125 = ORIENTED_EDGE ( 'NONE', *, *, #110, .F. ) ;
#126 = PERSON_AND_ORGANIZATION ( #102, #249 ) ;
#127 = CC_DESIGN_DATE_AND_TIME_ASSIGNMENT ( #256, #147, ( #234 ) ) ;
#128 =( GEOMETRIC_REPRESENTATION_CONTEXT ( 3 ) GLOBAL_UNCERTAINTY_ASSIGNED_CONTEXT ( ( #226 ) ) GLOBAL_UNIT_ASSIGNED_CONTEXT ( ( #148, #145, #23 ) ) REPRESENTATION_CONTEXT ( 'NONE', 'WORKASPACE' ) );
#129 = AXIS2_PLACEMENT_3D ( 'NONE', #262, #259, #118 ) ;
#130 = AXIS2_PLACEMENT_3D ( 'NONE', #271, #60, #94 ) ;
#131 = COORDINATED_UNIVERSAL_TIME_OFFSET ( 1, 0, .AHEAD. ) ;
#132 = ORIENTED_EDGE ( 'NONE', *, *, #253, .T. ) ;
#133 = ORIENTED_EDGE ( 'NONE', *, *, #253, .F. ) ;
#134 = DIRECTION ( 'NONE',  ( 3.491481338843133355E-15, -0.000000000000000000, 1.000000000000000000 ) ) ;
#135 = FACE_OUTER_BOUND ( 'NONE', #243, .T. ) ;
#136 = CARTESIAN_POINT ( 'NONE',  ( 5.268013539666541729E-15, 0.000000000000000000, 1.508819045102513634 ) ) ;
#137 = FACE_OUTER_BOUND ( 'NONE', #258, .T. ) ;
#138 = FACE_OUTER_BOUND ( 'NONE', #19, .T. ) ;
#139 = LOCAL_TIME ( 7, 46, 7.000000000000000000, #106 ) ;
#140 = DIRECTION ( 'NONE',  ( 3.491481338843133355E-15, -0.000000000000000000, 1.000000000000000000 ) ) ;
#141 = EDGE_CURVE ( 'NONE', #163, #163, #167, .T. ) ;
#142 = AXIS2_PLACEMENT_3D ( 'NONE', #154, #178, #41 ) ;
#143 = AXIS2_PLACEMENT_3D ( 'NONE', #136, #134, #204 ) ;
#144 = COORDINATED_UNIVERSAL_TIME_OFFSET ( 1, 0, .AHEAD. ) ;
#145 =( NAMED_UNIT ( * ) PLANE_ANGLE_UNIT ( ) SI_UNIT ( $, .RADIAN. ) );
#146 = EDGE_LOOP ( 'NONE', ( #52 ) ) ;
#147 = DATE_TIME_ROLE ( 'classification_date' ) ;
#148 =( LENGTH_UNIT ( ) NAMED_UNIT ( * ) SI_UNIT ( .MILLI., .METRE. ) );
#149 = APPROVAL_ROLE ( '' ) ;
#150 = EDGE_LOOP ( 'NONE', ( #10 ) ) ;
#151 = DIRECTION ( 'NONE',  ( 3.491481338843133355E-15, -0.000000000000000000, 1.000000000000000000 ) ) ;
#152 = EDGE_CURVE ( 'NONE', #58, #58, #122, .T. ) ;
#153 = ORIENTED_EDGE ( 'NONE', *, *, #152, .T. ) ;
#154 = CARTESIAN_POINT ( 'NONE',  ( 2.149871704579172984E-16, 0.000000000000000000, 0.06157477288111501412 ) ) ;
#155 = CARTESIAN_POINT ( 'NONE',  ( 0.000000000000000000, 0.000000000000000000, 0.000000000000000000 ) ) ;
#156 = VERTEX_POINT ( 'NONE', #221 ) ;
#157 = CARTESIAN_POINT ( 'NONE',  ( 1.326762908760390423E-13, 0.000000000000000000, 38.00000000000000000 ) ) ;
#158 = CC_DESIGN_PERSON_AND_ORGANIZATION_ASSIGNMENT ( #24, #275, ( #5 ) ) ;
#159 = EDGE_CURVE ( 'NONE', #39, #39, #69, .T. ) ;
#160 = CARTESIAN_POINT ( 'NONE',  ( 1.326762908760390423E-13, 0.000000000000000000, 38.00000000000000000 ) ) ;
#161 = PRODUCT_DEFINITION_FORMATION_WITH_SPECIFIED_SOURCE ( 'ANY', '', #96, .NOT_KNOWN. ) ;
#162 = CC_DESIGN_PERSON_AND_ORGANIZATION_ASSIGNMENT ( #126, #64, ( #161 ) ) ;
#163 = VERTEX_POINT ( 'NONE', #248 ) ;
#164 = VERTEX_POINT ( 'NONE', #22 ) ;
#165 = AXIS2_PLACEMENT_3D ( 'NONE', #91, #114, #72 ) ;
#166 = CYLINDRICAL_SURFACE ( 'NONE', #235, 0.2200000000000000011 ) ;
#167 = CIRCLE ( 'NONE', #116, 1.500000000000000000 ) ;
#168 = AXIS2_PLACEMENT_3D ( 'NONE', #229, #224, #75 ) ;
#169 = PERSON_AND_ORGANIZATION_ROLE ( 'design_owner' ) ;
#170 = EDGE_CURVE ( 'NONE', #210, #210, #28, .T. ) ;
#171 = APPLICATION_PROTOCOL_DEFINITION ( 'international standard', 'config_control_design', 1994, #202 ) ;
#172 = EDGE_CURVE ( 'NONE', #270, #270, #273, .T. ) ;
#173 = CALENDAR_DATE ( 2023, 27, 9 ) ;
#174 = APPROVAL_DATE_TIME ( #82, #228 ) ;
#175 = ORIENTED_EDGE ( 'NONE', *, *, #189, .T. ) ;
#176 = FACE_OUTER_BOUND ( 'NONE', #33, .T. ) ;
#177 = CYLINDRICAL_SURFACE ( 'NONE', #265, 0.1349999999999998701 ) ;
#178 = DIRECTION ( 'NONE',  ( 3.491481338843133355E-15, -0.000000000000000000, 1.000000000000000000 ) ) ;
#179 = DIRECTION ( 'NONE',  ( 1.000000000000000000, 0.000000000000000000, -3.513618151573392962E-15 ) ) ;
#180 = AXIS2_PLACEMENT_3D ( 'NONE', #184, #244, #78 ) ;
#181 = CIRCLE ( 'NONE', #129, 0.1690741737109299203 ) ;
#182 = AXIS2_PLACEMENT_3D ( 'NONE', #43, #42, #231 ) ;
#183 = CYLINDRICAL_SURFACE ( 'NONE', #59, 1.499999999999998002 ) ;
#184 = CARTESIAN_POINT ( 'NONE',  ( 0.000000000000000000, 0.000000000000000000, 0.000000000000000000 ) ) ;
#185 = FACE_OUTER_BOUND ( 'NONE', #37, .T. ) ;
#186 = PRODUCT_RELATED_PRODUCT_CATEGORY ( 'detail', '', ( #96 ) ) ;
#187 = CARTESIAN_POINT ( 'NONE',  ( 1.316288464743861212E-13, 0.000000000000000000, 37.69999999999999574 ) ) ;
#188 = DIRECTION ( 'NONE',  ( 1.000000000000000000, 0.000000000000000000, -5.782411586589390376E-15 ) ) ;
#189 = EDGE_CURVE ( 'NONE', #164, #164, #18, .T. ) ;
#190 = APPROVAL_DATE_TIME ( #214, #65 ) ;
#191 = ADVANCED_FACE ( 'NONE', ( #11 ), #121, .F. ) ;
#192 = DATE_AND_TIME ( #103, #79 ) ;
#193 = APPROVAL_ROLE ( '' ) ;
#194 = AXIS2_PLACEMENT_3D ( 'NONE', #17, #109, #188 ) ;
#195 = COORDINATED_UNIVERSAL_TIME_OFFSET ( 1, 0, .AHEAD. ) ;
#196 = EDGE_LOOP ( 'NONE', ( #34 ) ) ;
#197 = ORIENTED_EDGE ( 'NONE', *, *, #152, .F. ) ;
#198 = FACE_OUTER_BOUND ( 'NONE', #220, .T. ) ;
#199 = EDGE_LOOP ( 'NONE', ( #85 ) ) ;
#200 = ADVANCED_FACE ( 'NONE', ( #89, #137 ), #166, .T. ) ;
#201 = VERTEX_POINT ( 'NONE', #205 ) ;
#202 = APPLICATION_CONTEXT ( 'configuration controlled 3d designs of mechanical parts and assemblies' ) ;
#203 = SHAPE_DEFINITION_REPRESENTATION ( #119, #274 ) ;
#204 = DIRECTION ( 'NONE',  ( 1.000000000000000000, 0.000000000000000000, -3.847549801446991791E-15 ) ) ;
#205 = CARTESIAN_POINT ( 'NONE',  ( 1.500000000000127676, 0.000000000000000000, 37.69999999999998863 ) ) ;
#206 = APPROVAL_PERSON_ORGANIZATION ( #26, #65, #252 ) ;
#207 = LOCAL_TIME ( 7, 46, 7.000000000000000000, #81 ) ;
#208 = FACE_OUTER_BOUND ( 'NONE', #196, .T. ) ;
#209 = DIRECTION ( 'NONE',  ( 3.491481338843133355E-15, -0.000000000000000000, 1.000000000000000000 ) ) ;
#210 = VERTEX_POINT ( 'NONE', #20 ) ;
#211 = CARTESIAN_POINT ( 'NONE',  ( 1.326762908760390423E-13, 0.000000000000000000, 38.00000000000000000 ) ) ;
#212 = APPROVAL_PERSON_ORGANIZATION ( #255, #228, #193 ) ;
#213 = AXIS2_PLACEMENT_3D ( 'NONE', #155, #151, #67 ) ;
#214 = DATE_AND_TIME ( #123, #139 ) ;
#215 = PERSON_AND_ORGANIZATION ( #102, #249 ) ;
#216 = ORIENTED_EDGE ( 'NONE', *, *, #141, .F. ) ;
#217 = ORIENTED_EDGE ( 'NONE', *, *, #99, .T. ) ;
#218 = EDGE_LOOP ( 'NONE', ( #237 ) ) ;
#219 = FACE_OUTER_BOUND ( 'NONE', #88, .T. ) ;
#220 = EDGE_LOOP ( 'NONE', ( #132 ) ) ;
#221 = CARTESIAN_POINT ( 'NONE',  ( 0.1690741737109351939, 0.000000000000000000, 1.508819045102512968 ) ) ;
#222 = CARTESIAN_POINT ( 'NONE',  ( 2.261049046117206531E-14, 0.000000000000000000, 6.475901849919043940 ) ) ;
#223 = DIRECTION ( 'NONE',  ( -3.491481338843133355E-15, 0.000000000000000000, -1.000000000000000000 ) ) ;
#224 = DIRECTION ( 'NONE',  ( 3.491481338843133355E-15, -0.000000000000000000, 1.000000000000000000 ) ) ;
#225 = CC_DESIGN_APPROVAL ( #228, ( #161 ) ) ;
#226 = UNCERTAINTY_MEASURE_WITH_UNIT (LENGTH_MEASURE( 1.000000000000000082E-05 ), #148, 'distance_accuracy_value', 'NONE');
#227 = TOROIDAL_SURFACE ( 'NONE', #165, 1.135000000000000009, 1.000000000000000000 ) ;
#228 = APPROVAL ( #62, 'UNSPECIFIED' ) ;
#229 = CARTESIAN_POINT ( 'NONE',  ( 0.000000000000000000, 0.000000000000000000, 0.000000000000000000 ) ) ;
#230 = CC_DESIGN_PERSON_AND_ORGANIZATION_ASSIGNMENT ( #61, #169, ( #96 ) ) ;
#231 = DIRECTION ( 'NONE',  ( 1.000000000000000000, 0.000000000000000000, 0.000000000000000000 ) ) ;
#232 = PERSON_AND_ORGANIZATION_ROLE ( 'creator' ) ;
#233 = PERSON_AND_ORGANIZATION ( #102, #249 ) ;
#234 = SECURITY_CLASSIFICATION ( '', '', #124 ) ;
#235 = AXIS2_PLACEMENT_3D ( 'NONE', #211, #261, #269 ) ;
#236 = ORIENTED_EDGE ( 'NONE', *, *, #172, .F. ) ;
#237 = ORIENTED_EDGE ( 'NONE', *, *, #99, .F. ) ;
#238 = EDGE_LOOP ( 'NONE', ( #216 ) ) ;
#239 = ADVANCED_FACE ( 'NONE', ( #68, #264 ), #46, .T. ) ;
#240 = DIRECTION ( 'NONE',  ( -1.000000000000000000, 0.000000000000000000, 4.625929269271497155E-15 ) ) ;
#241 = CONICAL_SURFACE ( 'NONE', #3, 0.2200000000000000011, 1.047197551196552334 ) ;
#242 = AXIS2_PLACEMENT_3D ( 'NONE', #14, #48, #246 ) ;
#243 = EDGE_LOOP ( 'NONE', ( #125 ) ) ;
#244 = DIRECTION ( 'NONE',  ( 3.491481338843133355E-15, -0.000000000000000000, 1.000000000000000000 ) ) ;
#245 = DIRECTION ( 'NONE',  ( 3.491481338843133355E-15, -0.000000000000000000, 1.000000000000000000 ) ) ;
#246 = DIRECTION ( 'NONE',  ( 1.000000000000000000, 0.000000000000000000, -4.625929269271497155E-15 ) ) ;
#247 = CARTESIAN_POINT ( 'NONE',  ( 4.364351673553920638E-15, 0.000000000000000000, 1.250000000000001110 ) ) ;
#248 = CARTESIAN_POINT ( 'NONE',  ( 1.500000000000022649, 0.000000000000000000, 6.475901849919038611 ) ) ;
#249 = ORGANIZATION ( 'UNSPECIFIED', 'UNSPECIFIED', '' ) ;
#250 = CLOSED_SHELL ( 'NONE', ( #191, #57, #200, #87, #27, #239, #25, #254, #38, #117 ) ) ;
#251 = AXIS2_PLACEMENT_3D ( 'NONE', #247, #53, #13 ) ;
#252 = APPROVAL_ROLE ( '' ) ;
#253 = EDGE_CURVE ( 'NONE', #272, #272, #71, .T. ) ;
#254 = ADVANCED_FACE ( 'NONE', ( #135, #219 ), #227, .F. ) ;
#255 = PERSON_AND_ORGANIZATION ( #102, #249 ) ;
#256 = DATE_AND_TIME ( #173, #207 ) ;
#257 = APPLICATION_PROTOCOL_DEFINITION ( 'international standard', 'config_control_design', 1994, #15 ) ;
#258 = EDGE_LOOP ( 'NONE', ( #266 ) ) ;
#259 = DIRECTION ( 'NONE',  ( 3.491481338843133355E-15, -0.000000000000000000, 1.000000000000000000 ) ) ;
#260 = FACE_BOUND ( 'NONE', #7, .T. ) ;
#261 = DIRECTION ( 'NONE',  ( 3.491481338843133355E-15, -0.000000000000000000, 1.000000000000000000 ) ) ;
#262 = CARTESIAN_POINT ( 'NONE',  ( 5.268013539666541729E-15, 0.000000000000000000, 1.508819045102513634 ) ) ;
#263 = APPROVAL_PERSON_ORGANIZATION ( #233, #77, #149 ) ;
#264 = FACE_OUTER_BOUND ( 'NONE', #73, .T. ) ;
#265 = AXIS2_PLACEMENT_3D ( 'NONE', #160, #140, #267 ) ;
#266 = ORIENTED_EDGE ( 'NONE', *, *, #172, .T. ) ;
#267 = DIRECTION ( 'NONE',  ( 1.000000000000000000, 0.000000000000000000, 0.000000000000000000 ) ) ;
#268 = CONICAL_SURFACE ( 'NONE', #213, 0.1350000000000000089, 1.047197551196613619 ) ;
#269 = DIRECTION ( 'NONE',  ( 1.000000000000000000, 0.000000000000000000, 0.000000000000000000 ) ) ;
#270 = VERTEX_POINT ( 'NONE', #76 ) ;
#271 = CARTESIAN_POINT ( 'NONE',  ( 1.713436537223829385E-16, 0.000000000000000000, 0.04907477288111639080 ) ) ;
#272 = VERTEX_POINT ( 'NONE', #29 ) ;
#273 = CIRCLE ( 'NONE', #130, 0.2200000000000000011 ) ;
#274 = ADVANCED_BREP_SHAPE_REPRESENTATION ( '318623', ( #50, #182 ), #128 ) ;
#275 = PERSON_AND_ORGANIZATION_ROLE ( 'creator' ) ;
ENDSEC;
END-ISO-10303-21;
