ISO-10303-21;
HEADER;
FILE_DESCRIPTION (( 'STEP AP203' ),
    '1' );
FILE_NAME ('31858.step',
    '2021-11-12T06:57:03',
    ( '' ),
    ( '' ),
    'SwSTEP 2.0',
    'SolidWorks 2019',
    '' );
FILE_SCHEMA (( 'CONFIG_CONTROL_DESIGN' ));
ENDSEC;

DATA;
#1 = VERTEX_POINT ( 'NONE', #148 ) ;
#2 = PERSON_AND_ORGANIZATION_ROLE ( 'design_owner' ) ;
#3 = APPROVAL_DATE_TIME ( #209, #78 ) ;
#4 = CIRCLE ( 'NONE', #154, 8.000000000000019540 ) ;
#5 = CC_DESIGN_APPROVAL ( #122, ( #21 ) ) ;
#6 = CARTESIAN_POINT ( 'NONE',  ( 1.222018468595096801E-13, 7.498798913309284755E-32, 35.00000000000000000 ) ) ;
#7 = APPROVAL_STATUS ( 'not_yet_approved' ) ;
#8 = CARTESIAN_POINT ( 'NONE',  ( 1.222018468595096801E-13, 7.498798913309284755E-32, 35.00000000000000000 ) ) ;
#9 = EDGE_CURVE ( 'NONE', #169, #169, #41, .T. ) ;
#10 = COORDINATED_UNIVERSAL_TIME_OFFSET ( 1, 0, .AHEAD. ) ;
#11 = DIRECTION ( 'NONE',  ( 4.275831445896959482E-31, 1.000000000000000000, 1.224646799147353454E-16 ) ) ;
#12 = SECURITY_CLASSIFICATION_LEVEL ( 'unclassified' ) ;
#13 = FACE_OUTER_BOUND ( 'NONE', #51, .T. ) ;
#14 = DATE_AND_TIME ( #84, #71 ) ;
#15 = DIRECTION ( 'NONE',  ( -3.491481338843133355E-15, 1.224646799147353454E-16, -1.000000000000000000 ) ) ;
#16 = ADVANCED_FACE ( 'NONE', ( #156 ), #172, .T. ) ;
#17 = CIRCLE ( 'NONE', #73, 10.00000000000000000 ) ;
#18 =( NAMED_UNIT ( * ) SI_UNIT ( $, .STERADIAN. ) SOLID_ANGLE_UNIT ( ) );
#19 = DIRECTION ( 'NONE',  ( 0.0000000000000000000, 0.0000000000000000000, 1.000000000000000000 ) ) ;
#20 = VERTEX_POINT ( 'NONE', #128 ) ;
#21 = PRODUCT_DEFINITION_FORMATION_WITH_SPECIFIED_SOURCE ( 'ANY', '', #54, .NOT_KNOWN. ) ;
#22 = APPLICATION_CONTEXT ( 'configuration controlled 3d designs of mechanical parts and assemblies' ) ;
#23 = CC_DESIGN_DATE_AND_TIME_ASSIGNMENT ( #131, #112, ( #96 ) ) ;
#24 = EDGE_LOOP ( 'NONE', ( #141 ) ) ;
#25 = CONICAL_SURFACE ( 'NONE', #211, 10.00000000000000000, 0.7853981633974538301 ) ;
#26 = DIRECTION ( 'NONE',  ( 0.0000000000000000000, 1.000000000000000000, 0.0000000000000000000 ) ) ;
#27 = CARTESIAN_POINT ( 'NONE',  ( 3.631140592396858689E-13, -1.273632671113247592E-14, 104.0000000000000000 ) ) ;
#28 = DIRECTION ( 'NONE',  ( 1.000000000000000000, 0.0000000000000000000, -3.491130995403324278E-15 ) ) ;
#29 = AXIS2_PLACEMENT_3D ( 'NONE', #174, #140, #47 ) ;
#30 = CARTESIAN_POINT ( 'NONE',  ( 9.899999999999998579, 0.0000000000000000000, -3.457921778170308271E-14 ) ) ;
#31 = CARTESIAN_POINT ( 'NONE',  ( 3.491481338843133355E-16, 0.0000000000000000000, 0.1000000000000000056 ) ) ;
#32 = ADVANCED_FACE ( 'NONE', ( #86, #199 ), #77, .T. ) ;
#33 = ORIENTED_EDGE ( 'NONE', *, *, #9, .T. ) ;
#34 = VERTEX_POINT ( 'NONE', #163 ) ;
#35 = AXIS2_PLACEMENT_3D ( 'NONE', #125, #207, #186 ) ;
#36 = PERSON_AND_ORGANIZATION_ROLE ( 'creator' ) ;
#37 = ADVANCED_FACE ( 'NONE', ( #160 ), #62, .F. ) ;
#38 = CARTESIAN_POINT ( 'NONE',  ( 10.00000000000000000, 0.0000000000000000000, 0.09999999999996508904 ) ) ;
#39 = VERTEX_POINT ( 'NONE', #38 ) ;
#40 = LOCAL_TIME ( 7, 57, 3.000000000000000000, #114 ) ;
#41 = CIRCLE ( 'NONE', #146, 9.999999999999998224 ) ;
#42 = CC_DESIGN_SECURITY_CLASSIFICATION ( #116, ( #21 ) ) ;
#43 = EDGE_LOOP ( 'NONE', ( #33 ) ) ;
#44 = PERSON_AND_ORGANIZATION ( #181, #179 ) ;
#45 = DIRECTION ( 'NONE',  ( 3.491481338843133355E-15, -1.224646799147353454E-16, 1.000000000000000000 ) ) ;
#46 = APPROVAL_ROLE ( '' ) ;
#47 = DIRECTION ( 'NONE',  ( 1.000000000000000000, 0.0000000000000000000, -3.491481338843133355E-15 ) ) ;
#48 = DIRECTION ( 'NONE',  ( 3.491481338843133355E-15, -0.0000000000000000000, 1.000000000000000000 ) ) ;
#49 = PLANE ( 'NONE',  #118 ) ;
#50 = ORIENTED_EDGE ( 'NONE', *, *, #150, .T. ) ;
#51 = EDGE_LOOP ( 'NONE', ( #221 ) ) ;
#52 = COORDINATED_UNIVERSAL_TIME_OFFSET ( 1, 0, .AHEAD. ) ;
#53 =( GEOMETRIC_REPRESENTATION_CONTEXT ( 3 ) GLOBAL_UNCERTAINTY_ASSIGNED_CONTEXT ( ( #56 ) ) GLOBAL_UNIT_ASSIGNED_CONTEXT ( ( #108, #57, #18 ) ) REPRESENTATION_CONTEXT ( 'NONE', 'WORKASPACE' ) );
#54 = PRODUCT ( '31858', '31858', '', ( #133 ) ) ;
#55 = PERSON_AND_ORGANIZATION ( #181, #179 ) ;
#56 = UNCERTAINTY_MEASURE_WITH_UNIT (LENGTH_MEASURE( 1.000000000000000082E-05 ), #108, 'distance_accuracy_value', 'NONE');
#57 =( NAMED_UNIT ( * ) PLANE_ANGLE_UNIT ( ) SI_UNIT ( $, .RADIAN. ) );
#58 = ADVANCED_FACE ( 'NONE', ( #67 ), #49, .T. ) ;
#59 = EDGE_LOOP ( 'NONE', ( #149 ) ) ;
#60 = FACE_OUTER_BOUND ( 'NONE', #152, .T. ) ;
#61 = ADVANCED_FACE ( 'NONE', ( #100 ), #102, .F. ) ;
#62 = PLANE ( 'NONE',  #103 ) ;
#63 = APPROVAL_STATUS ( 'not_yet_approved' ) ;
#64 = DIRECTION ( 'NONE',  ( -3.491481338843133355E-15, 1.224646799147353454E-16, -1.000000000000000000 ) ) ;
#65 = SHAPE_DEFINITION_REPRESENTATION ( #74, #147 ) ;
#66 = CC_DESIGN_PERSON_AND_ORGANIZATION_ASSIGNMENT ( #168, #204, ( #116 ) ) ;
#67 = FACE_OUTER_BOUND ( 'NONE', #24, .T. ) ;
#68 = EDGE_LOOP ( 'NONE', ( #142 ) ) ;
#69 = FACE_OUTER_BOUND ( 'NONE', #189, .T. ) ;
#70 = APPLICATION_PROTOCOL_DEFINITION ( 'international standard', 'config_control_design', 1994, #22 ) ;
#71 = LOCAL_TIME ( 7, 57, 3.000000000000000000, #195 ) ;
#72 = CC_DESIGN_PERSON_AND_ORGANIZATION_ASSIGNMENT ( #55, #36, ( #96 ) ) ;
#73 = AXIS2_PLACEMENT_3D ( 'NONE', #219, #64, #105 ) ;
#74 = PRODUCT_DEFINITION_SHAPE ( 'NONE', 'NONE',  #96 ) ;
#75 = ADVANCED_FACE ( 'NONE', ( #188, #69 ), #88, .T. ) ;
#76 = MANIFOLD_SOLID_BREP ( 'Corps-Déplacer/Copier1[2]', #94 ) ;
#77 = CONICAL_SURFACE ( 'NONE', #151, 10.00000000000000000, 0.7853981633974466137 ) ;
#78 = APPROVAL ( #130, 'UNSPECIFIED' ) ;
#79 = CARTESIAN_POINT ( 'NONE',  ( 0.0000000000000000000, 0.0000000000000000000, 0.0000000000000000000 ) ) ;
#80 = PERSON_AND_ORGANIZATION ( #181, #179 ) ;
#81 = DIRECTION ( 'NONE',  ( 4.275831445896959482E-31, 1.000000000000000000, 1.224646799147353454E-16 ) ) ;
#82 = CC_DESIGN_APPROVAL ( #129, ( #116 ) ) ;
#83 = CYLINDRICAL_SURFACE ( 'NONE', #134, 9.999999999999998224 ) ;
#84 = CALENDAR_DATE ( 2021, 12, 11 ) ;
#85 = PRODUCT_RELATED_PRODUCT_CATEGORY ( 'detail', '', ( #54 ) ) ;
#86 = FACE_BOUND ( 'NONE', #161, .T. ) ;
#87 = DATE_AND_TIME ( #175, #194 ) ;
#88 = CYLINDRICAL_SURFACE ( 'NONE', #208, 9.999999999999998224 ) ;
#89 = COORDINATED_UNIVERSAL_TIME_OFFSET ( 1, 0, .AHEAD. ) ;
#90 = CLOSED_SHELL ( 'NONE', ( #61, #132, #32, #37 ) ) ;
#91 = EDGE_LOOP ( 'NONE', ( #117 ) ) ;
#92 = ORIENTED_EDGE ( 'NONE', *, *, #180, .T. ) ;
#93 = APPLICATION_PROTOCOL_DEFINITION ( 'international standard', 'config_control_design', 1994, #210 ) ;
#94 = CLOSED_SHELL ( 'NONE', ( #75, #16, #144, #58 ) ) ;
#95 = APPROVAL_PERSON_ORGANIZATION ( #193, #78, #191 ) ;
#96 = PRODUCT_DEFINITION ( 'UNKNOWN', '', #21, #187 ) ;
#97 = ORIENTED_EDGE ( 'NONE', *, *, #150, .F. ) ;
#98 = EDGE_CURVE ( 'NONE', #121, #121, #201, .T. ) ;
#99 = DIRECTION ( 'NONE',  ( -3.491481338843133355E-15, 1.224646799147353454E-16, -1.000000000000000000 ) ) ;
#100 = FACE_OUTER_BOUND ( 'NONE', #91, .T. ) ;
#101 = DATE_AND_TIME ( #120, #222 ) ;
#102 = PLANE ( 'NONE',  #164 ) ;
#103 = AXIS2_PLACEMENT_3D ( 'NONE', #106, #220, #81 ) ;
#104 = APPROVAL_PERSON_ORGANIZATION ( #177, #122, #46 ) ;
#105 = DIRECTION ( 'NONE',  ( 0.0000000000000000000, 1.000000000000000000, 0.0000000000000000000 ) ) ;
#106 = CARTESIAN_POINT ( 'NONE',  ( 3.631140592396858689E-13, 5.999039130647428242E-32, 104.0000000000000000 ) ) ;
#107 = PERSON_AND_ORGANIZATION_ROLE ( 'design_supplier' ) ;
#108 =( LENGTH_UNIT ( ) NAMED_UNIT ( * ) SI_UNIT ( .MILLI., .METRE. ) );
#109 = ORIENTED_EDGE ( 'NONE', *, *, #196, .T. ) ;
#110 = AXIS2_PLACEMENT_3D ( 'NONE', #139, #15, #200 ) ;
#111 = CC_DESIGN_PERSON_AND_ORGANIZATION_ASSIGNMENT ( #162, #2, ( #54 ) ) ;
#112 = DATE_TIME_ROLE ( 'creation_date' ) ;
#113 = ORIENTED_EDGE ( 'NONE', *, *, #9, .F. ) ;
#114 = COORDINATED_UNIVERSAL_TIME_OFFSET ( 1, 0, .AHEAD. ) ;
#115 = LOCAL_TIME ( 7, 57, 3.000000000000000000, #52 ) ;
#116 = SECURITY_CLASSIFICATION ( '', '', #12 ) ;
#117 = ORIENTED_EDGE ( 'NONE', *, *, #166, .T. ) ;
#118 = AXIS2_PLACEMENT_3D ( 'NONE', #183, #173, #11 ) ;
#119 = CARTESIAN_POINT ( 'NONE',  ( 1.222018468595096801E-13, 9.999999999999994671, 35.00000000000000000 ) ) ;
#120 = CALENDAR_DATE ( 2021, 12, 11 ) ;
#121 = VERTEX_POINT ( 'NONE', #30 ) ;
#122 = APPROVAL ( #7, 'UNSPECIFIED' ) ;
#123 = DIRECTION ( 'NONE',  ( 4.275831445896958607E-31, 1.000000000000000000, 1.224646799147353454E-16 ) ) ;
#124 = APPROVAL_DATE_TIME ( #101, #122 ) ;
#125 = CARTESIAN_POINT ( 'NONE',  ( 3.491481338843133355E-16, 0.0000000000000000000, 0.1000000000000000056 ) ) ;
#126 = PERSON_AND_ORGANIZATION ( #181, #179 ) ;
#127 = CARTESIAN_POINT ( 'NONE',  ( 3.561310965619996275E-13, -1.249139735130300562E-14, 102.0000000000000142 ) ) ;
#128 = CARTESIAN_POINT ( 'NONE',  ( 1.222018468595096801E-13, 9.999999999999994671, 35.00000000000000000 ) ) ;
#129 = APPROVAL ( #63, 'UNSPECIFIED' ) ;
#130 = APPROVAL_STATUS ( 'not_yet_approved' ) ;
#131 = DATE_AND_TIME ( #192, #115 ) ;
#132 = ADVANCED_FACE ( 'NONE', ( #203, #60 ), #83, .T. ) ;
#133 = MECHANICAL_CONTEXT ( 'NONE', #210, 'mechanical' ) ;
#134 = AXIS2_PLACEMENT_3D ( 'NONE', #79, #153, #214 ) ;
#135 = CC_DESIGN_PERSON_AND_ORGANIZATION_ASSIGNMENT ( #80, #107, ( #21 ) ) ;
#136 = CIRCLE ( 'NONE', #35, 10.00000000000000000 ) ;
#137 = DIRECTION ( 'NONE',  ( -3.491481338843133355E-15, 1.224646799147353454E-16, -1.000000000000000000 ) ) ;
#138 = CARTESIAN_POINT ( 'NONE',  ( 0.0000000000000000000, 0.0000000000000000000, 0.0000000000000000000 ) ) ;
#139 = CARTESIAN_POINT ( 'NONE',  ( 1.222018468595096801E-13, -4.286263797015737285E-15, 35.00000000000000000 ) ) ;
#140 = DIRECTION ( 'NONE',  ( 3.491481338843133355E-15, -0.0000000000000000000, 1.000000000000000000 ) ) ;
#141 = ORIENTED_EDGE ( 'NONE', *, *, #98, .F. ) ;
#142 = ORIENTED_EDGE ( 'NONE', *, *, #180, .F. ) ;
#143 = DIRECTION ( 'NONE',  ( 0.0000000000000000000, 1.000000000000000000, 0.0000000000000000000 ) ) ;
#144 = ADVANCED_FACE ( 'NONE', ( #198, #13 ), #25, .T. ) ;
#145 = DIRECTION ( 'NONE',  ( 1.000000000000000000, 0.0000000000000000000, 0.0000000000000000000 ) ) ;
#146 = AXIS2_PLACEMENT_3D ( 'NONE', #182, #99, #184 ) ;
#147 = ADVANCED_BREP_SHAPE_REPRESENTATION ( '31858', ( #158, #76, #202 ), #53 ) ;
#148 = CARTESIAN_POINT ( 'NONE',  ( 3.561310965619996275E-13, 9.999999999999987566, 102.0000000000000142 ) ) ;
#149 = ORIENTED_EDGE ( 'NONE', *, *, #98, .T. ) ;
#150 = EDGE_CURVE ( 'NONE', #1, #1, #17, .T. ) ;
#151 = AXIS2_PLACEMENT_3D ( 'NONE', #127, #216, #26 ) ;
#152 = EDGE_LOOP ( 'NONE', ( #206 ) ) ;
#153 = DIRECTION ( 'NONE',  ( -3.491481338843133355E-15, 1.224646799147353454E-16, -1.000000000000000000 ) ) ;
#154 = AXIS2_PLACEMENT_3D ( 'NONE', #27, #223, #143 ) ;
#155 = DIRECTION ( 'NONE',  ( -4.275831445896959482E-31, -1.000000000000000000, -1.224646799147353454E-16 ) ) ;
#156 = FACE_OUTER_BOUND ( 'NONE', #212, .T. ) ;
#157 = DATE_TIME_ROLE ( 'classification_date' ) ;
#158 = MANIFOLD_SOLID_BREP ( 'Corps-Déplacer/Copier1[1]', #90 ) ;
#159 = DIRECTION ( 'NONE',  ( 3.491481338843133355E-15, -1.224646799147353454E-16, 1.000000000000000000 ) ) ;
#160 = FACE_OUTER_BOUND ( 'NONE', #68, .T. ) ;
#161 = EDGE_LOOP ( 'NONE', ( #92 ) ) ;
#162 = PERSON_AND_ORGANIZATION ( #181, #179 ) ;
#163 = CARTESIAN_POINT ( 'NONE',  ( 3.631140592396858689E-13, 8.000000000000007105, 104.0000000000000000 ) ) ;
#164 = AXIS2_PLACEMENT_3D ( 'NONE', #6, #45, #155 ) ;
#165 = CC_DESIGN_DATE_AND_TIME_ASSIGNMENT ( #14, #157, ( #116 ) ) ;
#166 = EDGE_CURVE ( 'NONE', #20, #20, #197, .T. ) ;
#167 = DIRECTION ( 'NONE',  ( -4.275831445896959482E-31, -1.000000000000000000, -1.224646799147353454E-16 ) ) ;
#168 = PERSON_AND_ORGANIZATION ( #181, #179 ) ;
#169 = VERTEX_POINT ( 'NONE', #119 ) ;
#170 = APPROVAL_ROLE ( '' ) ;
#171 = CC_DESIGN_APPROVAL ( #78, ( #96 ) ) ;
#172 = PLANE ( 'NONE',  #213 ) ;
#173 = DIRECTION ( 'NONE',  ( -3.491481338843133355E-15, 1.224646799147353454E-16, -1.000000000000000000 ) ) ;
#174 = CARTESIAN_POINT ( 'NONE',  ( -4.731839565957903391E-32, 0.0000000000000000000, -1.355252715606880543E-17 ) ) ;
#175 = CALENDAR_DATE ( 2021, 12, 11 ) ;
#176 = CARTESIAN_POINT ( 'NONE',  ( 0.0000000000000000000, 0.0000000000000000000, 0.0000000000000000000 ) ) ;
#177 = PERSON_AND_ORGANIZATION ( #181, #179 ) ;
#178 = CALENDAR_DATE ( 2021, 12, 11 ) ;
#179 = ORGANIZATION ( 'UNSPECIFIED', 'UNSPECIFIED', '' ) ;
#180 = EDGE_CURVE ( 'NONE', #34, #34, #4, .T. ) ;
#181 = PERSON ( 'UNSPECIFIED', 'UNSPECIFIED', 'UNSPECIFIED', ('UNSPECIFIED'), ('UNSPECIFIED'), ('UNSPECIFIED') ) ;
#182 = CARTESIAN_POINT ( 'NONE',  ( 1.222018468595096801E-13, -4.286263797015737285E-15, 35.00000000000000000 ) ) ;
#183 = CARTESIAN_POINT ( 'NONE',  ( -2.137915722948479478E-30, 7.498798913309291323E-32, -6.123233995736767268E-16 ) ) ;
#184 = DIRECTION ( 'NONE',  ( 0.0000000000000000000, 1.000000000000000000, 0.0000000000000000000 ) ) ;
#185 = APPROVAL_PERSON_ORGANIZATION ( #126, #129, #170 ) ;
#186 = DIRECTION ( 'NONE',  ( 1.000000000000000000, 0.0000000000000000000, -3.491130995403324278E-15 ) ) ;
#187 = DESIGN_CONTEXT ( 'detailed design', #22, 'design' ) ;
#188 = FACE_OUTER_BOUND ( 'NONE', #43, .T. ) ;
#189 = EDGE_LOOP ( 'NONE', ( #109 ) ) ;
#190 = EDGE_LOOP ( 'NONE', ( #50 ) ) ;
#191 = APPROVAL_ROLE ( '' ) ;
#192 = CALENDAR_DATE ( 2021, 12, 11 ) ;
#193 = PERSON_AND_ORGANIZATION ( #181, #179 ) ;
#194 = LOCAL_TIME ( 7, 57, 3.000000000000000000, #10 ) ;
#195 = COORDINATED_UNIVERSAL_TIME_OFFSET ( 1, 0, .AHEAD. ) ;
#196 = EDGE_CURVE ( 'NONE', #39, #39, #136, .T. ) ;
#197 = CIRCLE ( 'NONE', #110, 9.999999999999998224 ) ;
#198 = FACE_BOUND ( 'NONE', #59, .T. ) ;
#199 = FACE_OUTER_BOUND ( 'NONE', #205, .T. ) ;
#200 = DIRECTION ( 'NONE',  ( 0.0000000000000000000, 1.000000000000000000, 0.0000000000000000000 ) ) ;
#201 = CIRCLE ( 'NONE', #29, 9.899999999999998579 ) ;
#202 = AXIS2_PLACEMENT_3D ( 'NONE', #176, #19, #145 ) ;
#203 = FACE_OUTER_BOUND ( 'NONE', #190, .T. ) ;
#204 = PERSON_AND_ORGANIZATION_ROLE ( 'classification_officer' ) ;
#205 = EDGE_LOOP ( 'NONE', ( #97 ) ) ;
#206 = ORIENTED_EDGE ( 'NONE', *, *, #166, .F. ) ;
#207 = DIRECTION ( 'NONE',  ( 3.491481338843133355E-15, -0.0000000000000000000, 1.000000000000000000 ) ) ;
#208 = AXIS2_PLACEMENT_3D ( 'NONE', #138, #137, #123 ) ;
#209 = DATE_AND_TIME ( #178, #40 ) ;
#210 = APPLICATION_CONTEXT ( 'configuration controlled 3d designs of mechanical parts and assemblies' ) ;
#211 = AXIS2_PLACEMENT_3D ( 'NONE', #31, #48, #28 ) ;
#212 = EDGE_LOOP ( 'NONE', ( #113 ) ) ;
#213 = AXIS2_PLACEMENT_3D ( 'NONE', #8, #159, #167 ) ;
#214 = DIRECTION ( 'NONE',  ( 4.275831445896958607E-31, 1.000000000000000000, 1.224646799147353454E-16 ) ) ;
#215 = PERSON_AND_ORGANIZATION_ROLE ( 'creator' ) ;
#216 = DIRECTION ( 'NONE',  ( -3.491481338843133355E-15, 1.224646799147353454E-16, -1.000000000000000000 ) ) ;
#217 = APPROVAL_DATE_TIME ( #87, #129 ) ;
#218 = CC_DESIGN_PERSON_AND_ORGANIZATION_ASSIGNMENT ( #44, #215, ( #21 ) ) ;
#219 = CARTESIAN_POINT ( 'NONE',  ( 3.561310965619996275E-13, -1.249139735130300562E-14, 102.0000000000000142 ) ) ;
#220 = DIRECTION ( 'NONE',  ( -3.491481338843133355E-15, 1.224646799147353454E-16, -1.000000000000000000 ) ) ;
#221 = ORIENTED_EDGE ( 'NONE', *, *, #196, .F. ) ;
#222 = LOCAL_TIME ( 7, 57, 3.000000000000000000, #89 ) ;
#223 = DIRECTION ( 'NONE',  ( -3.491481338843133355E-15, 1.224646799147353454E-16, -1.000000000000000000 ) ) ;
ENDSEC;
END-ISO-10303-21;
