ISO-10303-21;
HEADER;
FILE_DESCRIPTION (( 'STEP AP203' ),
    '1' );
FILE_NAME ('318545.step',
    '2023-09-27T05:43:21',
    ( '' ),
    ( '' ),
    'SwSTEP 2.0',
    'SolidWorks 2022',
    '' );
FILE_SCHEMA (( 'CONFIG_CONTROL_DESIGN' ));
ENDSEC;

DATA;
#1 = FACE_OUTER_BOUND ( 'NONE', #117, .T. ) ;
#2 = ADVANCED_FACE ( 'NONE', ( #98, #100 ), #35, .T. ) ;
#3 = DATE_AND_TIME ( #274, #14 ) ;
#4 = FACE_OUTER_BOUND ( 'NONE', #164, .T. ) ;
#5 = FACE_OUTER_BOUND ( 'NONE', #232, .T. ) ;
#6 = APPROVAL_PERSON_ORGANIZATION ( #146, #110, #148 ) ;
#7 = ADVANCED_FACE ( 'NONE', ( #99, #184 ), #244, .T. ) ;
#8 = CARTESIAN_POINT ( 'NONE',  ( 0.1349999999999999811, 0.000000000000000000, -4.713499807438228255E-16 ) ) ;
#9 = AXIS2_PLACEMENT_3D ( 'NONE', #39, #235, #178 ) ;
#10 = DIRECTION ( 'NONE',  ( -3.491481338843133355E-15, 0.000000000000000000, -1.000000000000000000 ) ) ;
#11 = DIRECTION ( 'NONE',  ( 1.000000000000000000, 0.000000000000000000, 0.000000000000000000 ) ) ;
#12 = ORIENTED_EDGE ( 'NONE', *, *, #205, .F. ) ;
#13 = AXIS2_PLACEMENT_3D ( 'NONE', #127, #126, #218 ) ;
#14 = LOCAL_TIME ( 7, 43, 21.00000000000000000, #16 ) ;
#15 = ORIENTED_EDGE ( 'NONE', *, *, #121, .F. ) ;
#16 = COORDINATED_UNIVERSAL_TIME_OFFSET ( 1, 0, .AHEAD. ) ;
#17 = DIRECTION ( 'NONE',  ( 3.491481338843133355E-15, -0.000000000000000000, 1.000000000000000000 ) ) ;
#18 = DATE_AND_TIME ( #217, #141 ) ;
#19 = AXIS2_PLACEMENT_3D ( 'NONE', #122, #43, #94 ) ;
#20 = DIRECTION ( 'NONE',  ( -1.000000000000000000, 0.000000000000000000, 3.511336581345099157E-15 ) ) ;
#21 = PERSON_AND_ORGANIZATION ( #139, #170 ) ;
#22 = DIRECTION ( 'NONE',  ( 3.491481338843133355E-15, -0.000000000000000000, 1.000000000000000000 ) ) ;
#23 = DATE_AND_TIME ( #123, #168 ) ;
#24 = DIRECTION ( 'NONE',  ( 3.491481338843133355E-15, -0.000000000000000000, 1.000000000000000000 ) ) ;
#25 = PERSON_AND_ORGANIZATION_ROLE ( 'creator' ) ;
#26 = DIRECTION ( 'NONE',  ( 1.000000000000000000, 0.000000000000000000, 0.000000000000000000 ) ) ;
#27 = CC_DESIGN_DATE_AND_TIME_ASSIGNMENT ( #23, #211, ( #221 ) ) ;
#28 = DIRECTION ( 'NONE',  ( 1.000000000000000000, 0.000000000000000000, -5.782411586589390376E-15 ) ) ;
#29 = CC_DESIGN_PERSON_AND_ORGANIZATION_ASSIGNMENT ( #174, #125, ( #227 ) ) ;
#30 = CIRCLE ( 'NONE', #185, 0.1349999999999999811 ) ;
#31 = EDGE_LOOP ( 'NONE', ( #103 ) ) ;
#32 = AXIS2_PLACEMENT_3D ( 'NONE', #124, #22, #85 ) ;
#33 = ORIENTED_EDGE ( 'NONE', *, *, #66, .F. ) ;
#34 = ORIENTED_EDGE ( 'NONE', *, *, #269, .T. ) ;
#35 = CYLINDRICAL_SURFACE ( 'NONE', #152, 0.1349999999999999811 ) ;
#36 = AXIS2_PLACEMENT_3D ( 'NONE', #90, #175, #20 ) ;
#37 = ORIENTED_EDGE ( 'NONE', *, *, #165, .F. ) ;
#38 = PERSON_AND_ORGANIZATION ( #139, #170 ) ;
#39 = CARTESIAN_POINT ( 'NONE',  ( 3.863308241803245190E-16, 0.000000000000000000, 0.1106495457622383438 ) ) ;
#40 = FACE_OUTER_BOUND ( 'NONE', #159, .T. ) ;
#41 = DIRECTION ( 'NONE',  ( 3.491481338843133355E-15, -0.000000000000000000, 1.000000000000000000 ) ) ;
#42 = PERSON_AND_ORGANIZATION_ROLE ( 'creator' ) ;
#43 = DIRECTION ( 'NONE',  ( 3.491481338843133355E-15, -0.000000000000000000, 1.000000000000000000 ) ) ;
#44 = VERTEX_POINT ( 'NONE', #263 ) ;
#45 = ADVANCED_FACE ( 'NONE', ( #143, #228 ), #156, .T. ) ;
#46 = VERTEX_POINT ( 'NONE', #243 ) ;
#47 = CC_DESIGN_APPROVAL ( #104, ( #221 ) ) ;
#48 = EDGE_LOOP ( 'NONE', ( #34 ) ) ;
#49 = DIRECTION ( 'NONE',  ( 1.000000000000000000, 0.000000000000000000, 0.000000000000000000 ) ) ;
#50 = CIRCLE ( 'NONE', #9, 0.1350000000000000089 ) ;
#51 =( GEOMETRIC_REPRESENTATION_CONTEXT ( 3 ) GLOBAL_UNCERTAINTY_ASSIGNED_CONTEXT ( ( #137 ) ) GLOBAL_UNIT_ASSIGNED_CONTEXT ( ( #73, #68, #130 ) ) REPRESENTATION_CONTEXT ( 'NONE', 'WORKASPACE' ) );
#52 = APPLICATION_CONTEXT ( 'configuration controlled 3d designs of mechanical parts and assemblies' ) ;
#53 = EDGE_LOOP ( 'NONE', ( #78 ) ) ;
#54 = CC_DESIGN_PERSON_AND_ORGANIZATION_ASSIGNMENT ( #38, #91, ( #221 ) ) ;
#55 = EDGE_LOOP ( 'NONE', ( #37 ) ) ;
#56 = ORIENTED_EDGE ( 'NONE', *, *, #66, .T. ) ;
#57 = CC_DESIGN_APPROVAL ( #201, ( #249 ) ) ;
#58 = CARTESIAN_POINT ( 'NONE',  ( 4.364351673553920638E-15, 0.000000000000000000, 1.250000000000001110 ) ) ;
#59 = APPROVAL_DATE_TIME ( #3, #201 ) ;
#60 = CARTESIAN_POINT ( 'NONE',  ( 1.316288464743861212E-13, 0.000000000000000000, 37.69999999999999574 ) ) ;
#61 = DATE_AND_TIME ( #171, #186 ) ;
#62 = DIRECTION ( 'NONE',  ( 1.000000000000000000, 0.000000000000000000, -3.491481338843133750E-15 ) ) ;
#63 = PERSON_AND_ORGANIZATION ( #139, #170 ) ;
#64 = DIRECTION ( 'NONE',  ( 1.000000000000000000, 0.000000000000000000, -3.847549801446996524E-15 ) ) ;
#65 = COORDINATED_UNIVERSAL_TIME_OFFSET ( 1, 0, .AHEAD. ) ;
#66 = EDGE_CURVE ( 'NONE', #157, #157, #50, .T. ) ;
#67 = CARTESIAN_POINT ( 'NONE',  ( 1.713436537223829385E-16, 0.000000000000000000, 0.04907477288111639080 ) ) ;
#68 =( NAMED_UNIT ( * ) PLANE_ANGLE_UNIT ( ) SI_UNIT ( $, .RADIAN. ) );
#69 = VERTEX_POINT ( 'NONE', #71 ) ;
#70 = AXIS2_PLACEMENT_3D ( 'NONE', #200, #182, #49 ) ;
#71 = CARTESIAN_POINT ( 'NONE',  ( 0.1350000000000042832, 0.000000000000000000, 1.250000000000000666 ) ) ;
#72 = APPLICATION_CONTEXT ( 'configuration controlled 3d designs of mechanical parts and assemblies' ) ;
#73 =( LENGTH_UNIT ( ) NAMED_UNIT ( * ) SI_UNIT ( .MILLI., .METRE. ) );
#74 = ADVANCED_FACE ( 'NONE', ( #258 ), #216, .F. ) ;
#75 = DESIGN_CONTEXT ( 'detailed design', #72, 'design' ) ;
#76 = CARTESIAN_POINT ( 'NONE',  ( 1.500000000000022649, 0.000000000000000000, 6.475901849919038611 ) ) ;
#77 = AXIS2_PLACEMENT_3D ( 'NONE', #180, #97, #28 ) ;
#78 = ORIENTED_EDGE ( 'NONE', *, *, #165, .T. ) ;
#79 = PRODUCT_DEFINITION_SHAPE ( 'NONE', 'NONE',  #246 ) ;
#80 = ADVANCED_FACE ( 'NONE', ( #1 ), #147, .F. ) ;
#81 = CIRCLE ( 'NONE', #199, 0.2200000000000000289 ) ;
#82 = ORIENTED_EDGE ( 'NONE', *, *, #205, .T. ) ;
#83 = ORIENTED_EDGE ( 'NONE', *, *, #121, .T. ) ;
#84 = DATE_AND_TIME ( #176, #190 ) ;
#85 = DIRECTION ( 'NONE',  ( 1.000000000000000000, 0.000000000000000000, -3.469446951953614189E-15 ) ) ;
#86 = PERSON_AND_ORGANIZATION ( #139, #170 ) ;
#87 = AXIS2_PLACEMENT_3D ( 'NONE', #58, #24, #197 ) ;
#88 = DIRECTION ( 'NONE',  ( 1.000000000000000000, 0.000000000000000000, -3.480535383263124707E-15 ) ) ;
#89 = CC_DESIGN_PERSON_AND_ORGANIZATION_ASSIGNMENT ( #219, #25, ( #246 ) ) ;
#90 = CARTESIAN_POINT ( 'NONE',  ( 2.149871704579172984E-16, 0.000000000000000000, 0.06157477288111501412 ) ) ;
#91 = PERSON_AND_ORGANIZATION_ROLE ( 'classification_officer' ) ;
#92 = APPLICATION_PROTOCOL_DEFINITION ( 'international standard', 'config_control_design', 1994, #72 ) ;
#93 = EDGE_CURVE ( 'NONE', #198, #198, #145, .T. ) ;
#94 = DIRECTION ( 'NONE',  ( 1.000000000000000000, 0.000000000000000000, -3.511336581345099157E-15 ) ) ;
#95 = CLOSED_SHELL ( 'NONE', ( #80, #7, #136, #118, #2, #264, #74, #155, #45, #160 ) ) ;
#96 = CONICAL_SURFACE ( 'NONE', #36, 0.2200000000000000289, 1.047197551196552556 ) ;
#97 = DIRECTION ( 'NONE',  ( 3.491481338843133355E-15, -0.000000000000000000, 1.000000000000000000 ) ) ;
#98 = FACE_OUTER_BOUND ( 'NONE', #55, .T. ) ;
#99 = FACE_OUTER_BOUND ( 'NONE', #202, .T. ) ;
#100 = FACE_OUTER_BOUND ( 'NONE', #208, .T. ) ;
#101 = CONICAL_SURFACE ( 'NONE', #196, 1.499999999999996225, 0.7853981633974504994 ) ;
#102 = APPROVAL_PERSON_ORGANIZATION ( #21, #201, #260 ) ;
#103 = ORIENTED_EDGE ( 'NONE', *, *, #269, .F. ) ;
#104 = APPROVAL ( #150, 'UNSPECIFIED' ) ;
#105 = FACE_BOUND ( 'NONE', #31, .T. ) ;
#106 = AXIS2_PLACEMENT_3D ( 'NONE', #233, #41, #26 ) ;
#107 = DIRECTION ( 'NONE',  ( 3.491481338843133355E-15, -0.000000000000000000, 1.000000000000000000 ) ) ;
#108 = PERSON_AND_ORGANIZATION_ROLE ( 'design_supplier' ) ;
#109 = FACE_BOUND ( 'NONE', #166, .T. ) ;
#110 = APPROVAL ( #215, 'UNSPECIFIED' ) ;
#111 = SHAPE_DEFINITION_REPRESENTATION ( #79, #230 ) ;
#112 = DIRECTION ( 'NONE',  ( -1.000000000000000000, 0.000000000000000000, 3.491481338843133355E-15 ) ) ;
#113 = CC_DESIGN_APPROVAL ( #110, ( #246 ) ) ;
#114 = CYLINDRICAL_SURFACE ( 'NONE', #13, 1.499999999999998002 ) ;
#115 = VERTEX_POINT ( 'NONE', #262 ) ;
#116 = ORIENTED_EDGE ( 'NONE', *, *, #237, .T. ) ;
#117 = EDGE_LOOP ( 'NONE', ( #203 ) ) ;
#118 = ADVANCED_FACE ( 'NONE', ( #109, #4 ), #96, .T. ) ;
#119 = DIRECTION ( 'NONE',  ( 1.000000000000000000, 0.000000000000000000, -3.491481338843132566E-15 ) ) ;
#120 = ORIENTED_EDGE ( 'NONE', *, *, #242, .F. ) ;
#121 = EDGE_CURVE ( 'NONE', #44, #44, #163, .T. ) ;
#122 = CARTESIAN_POINT ( 'NONE',  ( 2.149871704579172984E-16, 0.000000000000000000, 0.06157477288111501412 ) ) ;
#123 = CALENDAR_DATE ( 2023, 27, 9 ) ;
#124 = CARTESIAN_POINT ( 'NONE',  ( 2.261049046117206531E-14, 0.000000000000000000, 6.475901849919043940 ) ) ;
#125 = PERSON_AND_ORGANIZATION_ROLE ( 'design_owner' ) ;
#126 = DIRECTION ( 'NONE',  ( 3.491481338843133355E-15, -0.000000000000000000, 1.000000000000000000 ) ) ;
#127 = CARTESIAN_POINT ( 'NONE',  ( 1.326762908760390423E-13, 0.000000000000000000, 38.00000000000000000 ) ) ;
#128 = COORDINATED_UNIVERSAL_TIME_OFFSET ( 1, 0, .AHEAD. ) ;
#129 = DIRECTION ( 'NONE',  ( 3.491481338843133355E-15, -0.000000000000000000, 1.000000000000000000 ) ) ;
#130 =( NAMED_UNIT ( * ) SI_UNIT ( $, .STERADIAN. ) SOLID_ANGLE_UNIT ( ) );
#131 = AXIS2_PLACEMENT_3D ( 'NONE', #210, #193, #112 ) ;
#132 = VERTEX_POINT ( 'NONE', #265 ) ;
#133 = CARTESIAN_POINT ( 'NONE',  ( 1.500000000000127676, 0.000000000000000000, 37.69999999999998863 ) ) ;
#134 = MANIFOLD_SOLID_BREP ( 'Corps-Déplacer/Copier1', #95 ) ;
#135 = AXIS2_PLACEMENT_3D ( 'NONE', #172, #107, #62 ) ;
#136 = ADVANCED_FACE ( 'NONE', ( #173, #5 ), #236, .T. ) ;
#137 = UNCERTAINTY_MEASURE_WITH_UNIT (LENGTH_MEASURE( 1.000000000000000082E-05 ), #73, 'distance_accuracy_value', 'NONE');
#138 = APPLICATION_PROTOCOL_DEFINITION ( 'international standard', 'config_control_design', 1994, #52 ) ;
#139 = PERSON ( 'UNSPECIFIED', 'UNSPECIFIED', 'UNSPECIFIED', ('UNSPECIFIED'), ('UNSPECIFIED'), ('UNSPECIFIED') ) ;
#140 = ORIENTED_EDGE ( 'NONE', *, *, #242, .T. ) ;
#141 = LOCAL_TIME ( 7, 43, 21.00000000000000000, #128 ) ;
#142 = PRODUCT_RELATED_PRODUCT_CATEGORY ( 'detail', '', ( #227 ) ) ;
#143 = FACE_OUTER_BOUND ( 'NONE', #144, .T. ) ;
#144 = EDGE_LOOP ( 'NONE', ( #273 ) ) ;
#145 = CIRCLE ( 'NONE', #32, 1.500000000000000000 ) ;
#146 = PERSON_AND_ORGANIZATION ( #139, #170 ) ;
#147 = PLANE ( 'NONE',  #169 ) ;
#148 = APPROVAL_ROLE ( '' ) ;
#149 = DIRECTION ( 'NONE',  ( 1.000000000000000000, 0.000000000000000000, -3.491481338843133355E-15 ) ) ;
#150 = APPROVAL_STATUS ( 'not_yet_approved' ) ;
#151 = DIRECTION ( 'NONE',  ( 3.491481338843133355E-15, -0.000000000000000000, 1.000000000000000000 ) ) ;
#152 = AXIS2_PLACEMENT_3D ( 'NONE', #183, #267, #11 ) ;
#153 = FACE_OUTER_BOUND ( 'NONE', #53, .T. ) ;
#154 = DIRECTION ( 'NONE',  ( 3.491481338843133355E-15, -0.000000000000000000, 1.000000000000000000 ) ) ;
#155 = ADVANCED_FACE ( 'NONE', ( #255, #153 ), #259, .F. ) ;
#156 = CONICAL_SURFACE ( 'NONE', #214, 0.1690741737109297260, 0.2617993877991428575 ) ;
#157 = VERTEX_POINT ( 'NONE', #240 ) ;
#158 = CC_DESIGN_PERSON_AND_ORGANIZATION_ASSIGNMENT ( #86, #42, ( #249 ) ) ;
#159 = EDGE_LOOP ( 'NONE', ( #120 ) ) ;
#160 = ADVANCED_FACE ( 'NONE', ( #40, #261 ), #114, .T. ) ;
#161 = MECHANICAL_CONTEXT ( 'NONE', #52, 'mechanical' ) ;
#162 = DIRECTION ( 'NONE',  ( 3.491481338843133355E-15, -0.000000000000000000, 1.000000000000000000 ) ) ;
#163 = CIRCLE ( 'NONE', #248, 0.1690741737109297260 ) ;
#164 = EDGE_LOOP ( 'NONE', ( #270 ) ) ;
#165 = EDGE_CURVE ( 'NONE', #69, #69, #231, .T. ) ;
#166 = EDGE_LOOP ( 'NONE', ( #33 ) ) ;
#167 = DIRECTION ( 'NONE',  ( 1.000000000000000000, 0.000000000000000000, -4.625929269271497155E-15 ) ) ;
#168 = LOCAL_TIME ( 7, 43, 21.00000000000000000, #65 ) ;
#169 = AXIS2_PLACEMENT_3D ( 'NONE', #238, #220, #149 ) ;
#170 = ORGANIZATION ( 'UNSPECIFIED', 'UNSPECIFIED', '' ) ;
#171 = CALENDAR_DATE ( 2023, 27, 9 ) ;
#172 = CARTESIAN_POINT ( 'NONE',  ( 4.364351673553917483E-15, 0.000000000000000000, 1.250000000000000222 ) ) ;
#173 = FACE_OUTER_BOUND ( 'NONE', #207, .T. ) ;
#174 = PERSON_AND_ORGANIZATION ( #139, #170 ) ;
#175 = DIRECTION ( 'NONE',  ( -3.491481338843133355E-15, 0.000000000000000000, -1.000000000000000000 ) ) ;
#176 = CALENDAR_DATE ( 2023, 27, 9 ) ;
#177 = AXIS2_PLACEMENT_3D ( 'NONE', #239, #129, #167 ) ;
#178 = DIRECTION ( 'NONE',  ( 1.000000000000000000, 0.000000000000000000, -3.513618151573393751E-15 ) ) ;
#179 = DIRECTION ( 'NONE',  ( -1.000000000000000000, 0.000000000000000000, 4.625929269271497155E-15 ) ) ;
#180 = CARTESIAN_POINT ( 'NONE',  ( 1.326762908760390423E-13, 0.000000000000000000, 38.00000000000000000 ) ) ;
#181 = EDGE_CURVE ( 'NONE', #132, #132, #225, .T. ) ;
#182 = DIRECTION ( 'NONE',  ( 0.000000000000000000, 0.000000000000000000, 1.000000000000000000 ) ) ;
#183 = CARTESIAN_POINT ( 'NONE',  ( 1.326762908760390423E-13, 0.000000000000000000, 38.00000000000000000 ) ) ;
#184 = FACE_BOUND ( 'NONE', #247, .T. ) ;
#185 = AXIS2_PLACEMENT_3D ( 'NONE', #254, #154, #189 ) ;
#186 = LOCAL_TIME ( 7, 43, 21.00000000000000000, #192 ) ;
#187 = APPROVAL_ROLE ( '' ) ;
#188 = APPROVAL_STATUS ( 'not_yet_approved' ) ;
#189 = DIRECTION ( 'NONE',  ( 1.000000000000000000, 0.000000000000000000, -3.491481338843132566E-15 ) ) ;
#190 = LOCAL_TIME ( 7, 43, 21.00000000000000000, #209 ) ;
#191 = DIRECTION ( 'NONE',  ( 3.491481338843133355E-15, -0.000000000000000000, 1.000000000000000000 ) ) ;
#192 = COORDINATED_UNIVERSAL_TIME_OFFSET ( 1, 0, .AHEAD. ) ;
#193 = DIRECTION ( 'NONE',  ( -3.491481338843133355E-15, 0.000000000000000000, -1.000000000000000000 ) ) ;
#194 = SECURITY_CLASSIFICATION_LEVEL ( 'unclassified' ) ;
#195 = CARTESIAN_POINT ( 'NONE',  ( 5.268013539666541729E-15, 0.000000000000000000, 1.508819045102513634 ) ) ;
#196 = AXIS2_PLACEMENT_3D ( 'NONE', #60, #10, #179 ) ;
#197 = DIRECTION ( 'NONE',  ( 1.000000000000000000, 0.000000000000000000, -3.212450881438533424E-15 ) ) ;
#198 = VERTEX_POINT ( 'NONE', #76 ) ;
#199 = AXIS2_PLACEMENT_3D ( 'NONE', #67, #17, #88 ) ;
#200 = CARTESIAN_POINT ( 'NONE',  ( 0.000000000000000000, 0.000000000000000000, 0.000000000000000000 ) ) ;
#201 = APPROVAL ( #188, 'UNSPECIFIED' ) ;
#202 = EDGE_LOOP ( 'NONE', ( #12 ) ) ;
#203 = ORIENTED_EDGE ( 'NONE', *, *, #237, .F. ) ;
#204 = EDGE_LOOP ( 'NONE', ( #250 ) ) ;
#205 = EDGE_CURVE ( 'NONE', #115, #115, #81, .T. ) ;
#206 = CIRCLE ( 'NONE', #77, 1.199999999999993072 ) ;
#207 = EDGE_LOOP ( 'NONE', ( #224 ) ) ;
#208 = EDGE_LOOP ( 'NONE', ( #56 ) ) ;
#209 = COORDINATED_UNIVERSAL_TIME_OFFSET ( 1, 0, .AHEAD. ) ;
#210 = CARTESIAN_POINT ( 'NONE',  ( 1.326762908760390423E-13, 1.199999999999993072, 38.00000000000000000 ) ) ;
#211 = DATE_TIME_ROLE ( 'classification_date' ) ;
#212 = CC_DESIGN_DATE_AND_TIME_ASSIGNMENT ( #61, #256, ( #246 ) ) ;
#213 = DIRECTION ( 'NONE',  ( 1.000000000000000000, 0.000000000000000000, -3.847549801446996524E-15 ) ) ;
#214 = AXIS2_PLACEMENT_3D ( 'NONE', #252, #191, #213 ) ;
#215 = APPROVAL_STATUS ( 'not_yet_approved' ) ;
#216 = PLANE ( 'NONE',  #131 ) ;
#217 = CALENDAR_DATE ( 2023, 27, 9 ) ;
#218 = DIRECTION ( 'NONE',  ( 1.000000000000000000, 0.000000000000000000, -4.625929269271491633E-15 ) ) ;
#219 = PERSON_AND_ORGANIZATION ( #139, #170 ) ;
#220 = DIRECTION ( 'NONE',  ( 3.491481338843133355E-15, -0.000000000000000000, 1.000000000000000000 ) ) ;
#221 = SECURITY_CLASSIFICATION ( '', '', #194 ) ;
#222 = VERTEX_POINT ( 'NONE', #8 ) ;
#223 = CIRCLE ( 'NONE', #177, 1.499999999999996225 ) ;
#224 = ORIENTED_EDGE ( 'NONE', *, *, #181, .F. ) ;
#225 = CIRCLE ( 'NONE', #19, 0.2200000000000000289 ) ;
#226 = EDGE_LOOP ( 'NONE', ( #83 ) ) ;
#227 = PRODUCT ( '318545', '318545', '', ( #161 ) ) ;
#228 = FACE_BOUND ( 'NONE', #226, .T. ) ;
#229 = EDGE_LOOP ( 'NONE', ( #140 ) ) ;
#230 = ADVANCED_BREP_SHAPE_REPRESENTATION ( '318545', ( #134, #70 ), #51 ) ;
#231 = CIRCLE ( 'NONE', #87, 0.1349999999999999256 ) ;
#232 = EDGE_LOOP ( 'NONE', ( #82 ) ) ;
#233 = CARTESIAN_POINT ( 'NONE',  ( 1.326762908760390423E-13, 0.000000000000000000, 38.00000000000000000 ) ) ;
#234 = PERSON_AND_ORGANIZATION ( #139, #170 ) ;
#235 = DIRECTION ( 'NONE',  ( 3.491481338843133355E-15, -0.000000000000000000, 1.000000000000000000 ) ) ;
#236 = CYLINDRICAL_SURFACE ( 'NONE', #106, 0.2200000000000000289 ) ;
#237 = EDGE_CURVE ( 'NONE', #222, #222, #30, .T. ) ;
#238 = CARTESIAN_POINT ( 'NONE',  ( 0.000000000000000000, 0.000000000000000000, 0.000000000000000000 ) ) ;
#239 = CARTESIAN_POINT ( 'NONE',  ( 1.316288464743861212E-13, 0.000000000000000000, 37.69999999999999574 ) ) ;
#240 = CARTESIAN_POINT ( 'NONE',  ( 0.1350000000000003697, 0.000000000000000000, 0.1106495457622378720 ) ) ;
#241 = VERTEX_POINT ( 'NONE', #133 ) ;
#242 = EDGE_CURVE ( 'NONE', #241, #241, #223, .T. ) ;
#243 = CARTESIAN_POINT ( 'NONE',  ( 1.200000000000125855, 0.000000000000000000, 37.99999999999999289 ) ) ;
#244 = CONICAL_SURFACE ( 'NONE', #251, 0.1349999999999999811, 1.047197551196613841 ) ;
#245 = CC_DESIGN_SECURITY_CLASSIFICATION ( #221, ( #249 ) ) ;
#246 = PRODUCT_DEFINITION ( 'UNKNOWN', '', #249, #75 ) ;
#247 = EDGE_LOOP ( 'NONE', ( #116 ) ) ;
#248 = AXIS2_PLACEMENT_3D ( 'NONE', #195, #151, #64 ) ;
#249 = PRODUCT_DEFINITION_FORMATION_WITH_SPECIFIED_SOURCE ( 'ANY', '', #227, .NOT_KNOWN. ) ;
#250 = ORIENTED_EDGE ( 'NONE', *, *, #93, .T. ) ;
#251 = AXIS2_PLACEMENT_3D ( 'NONE', #268, #162, #119 ) ;
#252 = CARTESIAN_POINT ( 'NONE',  ( 5.268013539666541729E-15, 0.000000000000000000, 1.508819045102513634 ) ) ;
#253 = APPROVAL_DATE_TIME ( #84, #110 ) ;
#254 = CARTESIAN_POINT ( 'NONE',  ( 0.000000000000000000, 0.000000000000000000, 0.000000000000000000 ) ) ;
#255 = FACE_OUTER_BOUND ( 'NONE', #271, .T. ) ;
#256 = DATE_TIME_ROLE ( 'creation_date' ) ;
#257 = CC_DESIGN_PERSON_AND_ORGANIZATION_ASSIGNMENT ( #234, #108, ( #249 ) ) ;
#258 = FACE_OUTER_BOUND ( 'NONE', #48, .T. ) ;
#259 = TOROIDAL_SURFACE ( 'NONE', #135, 1.134999999999999787, 1.000000000000000000 ) ;
#260 = APPROVAL_ROLE ( '' ) ;
#261 = FACE_OUTER_BOUND ( 'NONE', #204, .T. ) ;
#262 = CARTESIAN_POINT ( 'NONE',  ( 0.2200000000000001954, 0.000000000000000000, 0.04907477288111562752 ) ) ;
#263 = CARTESIAN_POINT ( 'NONE',  ( 0.1690741737109349718, 0.000000000000000000, 1.508819045102512968 ) ) ;
#264 = ADVANCED_FACE ( 'NONE', ( #105, #275 ), #101, .T. ) ;
#265 = CARTESIAN_POINT ( 'NONE',  ( 0.2200000000000002509, 0.000000000000000000, 0.06157477288111424391 ) ) ;
#266 = APPROVAL_PERSON_ORGANIZATION ( #63, #104, #187 ) ;
#267 = DIRECTION ( 'NONE',  ( 3.491481338843133355E-15, -0.000000000000000000, 1.000000000000000000 ) ) ;
#268 = CARTESIAN_POINT ( 'NONE',  ( 0.000000000000000000, 0.000000000000000000, 0.000000000000000000 ) ) ;
#269 = EDGE_CURVE ( 'NONE', #46, #46, #206, .T. ) ;
#270 = ORIENTED_EDGE ( 'NONE', *, *, #181, .T. ) ;
#271 = EDGE_LOOP ( 'NONE', ( #15 ) ) ;
#272 = APPROVAL_DATE_TIME ( #18, #104 ) ;
#273 = ORIENTED_EDGE ( 'NONE', *, *, #93, .F. ) ;
#274 = CALENDAR_DATE ( 2023, 27, 9 ) ;
#275 = FACE_OUTER_BOUND ( 'NONE', #229, .T. ) ;
ENDSEC;
END-ISO-10303-21;
