ISO-10303-21;
HEADER;
FILE_DESCRIPTION (( 'STEP AP203' ),
    '1' );
FILE_NAME ('318544.step',
    '2023-09-27T05:43:21',
    ( '' ),
    ( '' ),
    'SwSTEP 2.0',
    'SolidWorks 2022',
    '' );
FILE_SCHEMA (( 'CONFIG_CONTROL_DESIGN' ));
ENDSEC;

DATA;
#1 = CARTESIAN_POINT ( 'NONE',  ( 1.326762908760390423E-13, 0.000000000000000000, 38.00000000000000000 ) ) ;
#2 = APPLICATION_PROTOCOL_DEFINITION ( 'international standard', 'config_control_design', 1994, #151 ) ;
#3 = CC_DESIGN_PERSON_AND_ORGANIZATION_ASSIGNMENT ( #108, #195, ( #47 ) ) ;
#4 = LOCAL_TIME ( 7, 43, 21.00000000000000000, #260 ) ;
#5 = DIRECTION ( 'NONE',  ( 0.000000000000000000, 0.000000000000000000, 1.000000000000000000 ) ) ;
#6 = SECURITY_CLASSIFICATION_LEVEL ( 'unclassified' ) ;
#7 = ADVANCED_FACE ( 'NONE', ( #272, #172 ), #171, .F. ) ;
#8 = LOCAL_TIME ( 7, 43, 21.00000000000000000, #86 ) ;
#9 = DATE_TIME_ROLE ( 'creation_date' ) ;
#10 = PERSON_AND_ORGANIZATION_ROLE ( 'creator' ) ;
#11 = CC_DESIGN_PERSON_AND_ORGANIZATION_ASSIGNMENT ( #217, #85, ( #161 ) ) ;
#12 = VERTEX_POINT ( 'NONE', #140 ) ;
#13 = CONICAL_SURFACE ( 'NONE', #39, 0.1150000000000000050, 1.047197551196569876 ) ;
#14 = ORIENTED_EDGE ( 'NONE', *, *, #218, .T. ) ;
#15 = FACE_BOUND ( 'NONE', #201, .T. ) ;
#16 = CYLINDRICAL_SURFACE ( 'NONE', #198, 0.1150000000000000328 ) ;
#17 = DIRECTION ( 'NONE',  ( -1.000000000000000000, 0.000000000000000000, 3.491481338843133355E-15 ) ) ;
#18 = ORIENTED_EDGE ( 'NONE', *, *, #259, .F. ) ;
#19 = CC_DESIGN_APPROVAL ( #227, ( #109 ) ) ;
#20 = FACE_OUTER_BOUND ( 'NONE', #100, .T. ) ;
#21 = VERTEX_POINT ( 'NONE', #170 ) ;
#22 = ADVANCED_FACE ( 'NONE', ( #23, #169 ), #254, .T. ) ;
#23 = FACE_OUTER_BOUND ( 'NONE', #116, .T. ) ;
#24 = DIRECTION ( 'NONE',  ( 1.000000000000000000, 0.000000000000000000, -2.909161648852421778E-15 ) ) ;
#25 = DATE_AND_TIME ( #67, #8 ) ;
#26 = APPROVAL_DATE_TIME ( #244, #194 ) ;
#27 = CC_DESIGN_APPROVAL ( #184, ( #161 ) ) ;
#28 = COORDINATED_UNIVERSAL_TIME_OFFSET ( 1, 0, .AHEAD. ) ;
#29 = APPROVAL_STATUS ( 'not_yet_approved' ) ;
#30 = FACE_BOUND ( 'NONE', #156, .T. ) ;
#31 = AXIS2_PLACEMENT_3D ( 'NONE', #114, #33, #226 ) ;
#32 = EDGE_LOOP ( 'NONE', ( #53 ) ) ;
#33 = DIRECTION ( 'NONE',  ( 3.491481338843133355E-15, -0.000000000000000000, 1.000000000000000000 ) ) ;
#34 = EDGE_LOOP ( 'NONE', ( #188 ) ) ;
#35 = DIRECTION ( 'NONE',  ( 3.491481338843133355E-15, -0.000000000000000000, 1.000000000000000000 ) ) ;
#36 = EDGE_LOOP ( 'NONE', ( #14 ) ) ;
#37 = DIRECTION ( 'NONE',  ( 3.491481338843133355E-15, -0.000000000000000000, 1.000000000000000000 ) ) ;
#38 = ORIENTED_EDGE ( 'NONE', *, *, #150, .F. ) ;
#39 = AXIS2_PLACEMENT_3D ( 'NONE', #117, #270, #246 ) ;
#40 = CARTESIAN_POINT ( 'NONE',  ( 0.1850000000000001366, 0.000000000000000000, 0.04041451884327575822 ) ) ;
#41 =( NAMED_UNIT ( * ) SI_UNIT ( $, .STERADIAN. ) SOLID_ANGLE_UNIT ( ) );
#42 = AXIS2_PLACEMENT_3D ( 'NONE', #128, #103, #24 ) ;
#43 = CARTESIAN_POINT ( 'NONE',  ( 1.411065383596237464E-16, 0.000000000000000000, 0.04041451884327640354 ) ) ;
#44 = CARTESIAN_POINT ( 'NONE',  ( 0.000000000000000000, 0.000000000000000000, 0.000000000000000000 ) ) ;
#45 = COORDINATED_UNIVERSAL_TIME_OFFSET ( 1, 0, .AHEAD. ) ;
#46 = CONICAL_SURFACE ( 'NONE', #216, 1.499999999999996225, 0.7853981633974504994 ) ;
#47 = PRODUCT_DEFINITION ( 'UNKNOWN', '', #109, #133 ) ;
#48 = PERSON_AND_ORGANIZATION ( #240, #203 ) ;
#49 = AXIS2_PLACEMENT_3D ( 'NONE', #124, #271, #126 ) ;
#50 = DIRECTION ( 'NONE',  ( 1.000000000000000000, 0.000000000000000000, 0.000000000000000000 ) ) ;
#51 = EDGE_LOOP ( 'NONE', ( #18 ) ) ;
#52 = DIRECTION ( 'NONE',  ( 1.000000000000000000, 0.000000000000000000, -4.625929269271491633E-15 ) ) ;
#53 = ORIENTED_EDGE ( 'NONE', *, *, #55, .F. ) ;
#54 = DIRECTION ( 'NONE',  ( 1.000000000000000000, 0.000000000000000000, -3.491481338843133355E-15 ) ) ;
#55 = EDGE_CURVE ( 'NONE', #81, #81, #230, .T. ) ;
#56 = AXIS2_PLACEMENT_3D ( 'NONE', #44, #5, #50 ) ;
#57 = ORIENTED_EDGE ( 'NONE', *, *, #84, .F. ) ;
#58 = CARTESIAN_POINT ( 'NONE',  ( 1.326762908760390423E-13, 1.199999999999993072, 38.00000000000000000 ) ) ;
#59 = DIRECTION ( 'NONE',  ( 3.491481338843133355E-15, -0.000000000000000000, 1.000000000000000000 ) ) ;
#60 = CARTESIAN_POINT ( 'NONE',  ( 1.326762908760390423E-13, 0.000000000000000000, 38.00000000000000000 ) ) ;
#61 = CC_DESIGN_PERSON_AND_ORGANIZATION_ASSIGNMENT ( #48, #178, ( #266 ) ) ;
#62 = CIRCLE ( 'NONE', #65, 0.1849999999999999978 ) ;
#63 = VERTEX_POINT ( 'NONE', #209 ) ;
#64 = ORIENTED_EDGE ( 'NONE', *, *, #121, .T. ) ;
#65 = AXIS2_PLACEMENT_3D ( 'NONE', #236, #234, #147 ) ;
#66 = PERSON_AND_ORGANIZATION ( #240, #203 ) ;
#67 = CALENDAR_DATE ( 2023, 27, 9 ) ;
#68 = AXIS2_PLACEMENT_3D ( 'NONE', #101, #160, #186 ) ;
#69 = MECHANICAL_CONTEXT ( 'NONE', #151, 'mechanical' ) ;
#70 = CALENDAR_DATE ( 2023, 27, 9 ) ;
#71 = APPROVAL_PERSON_ORGANIZATION ( #66, #194, #261 ) ;
#72 = EDGE_LOOP ( 'NONE', ( #180 ) ) ;
#73 = FACE_OUTER_BOUND ( 'NONE', #137, .T. ) ;
#74 = ADVANCED_BREP_SHAPE_REPRESENTATION ( '318544', ( #159, #56 ), #167 ) ;
#75 = DIRECTION ( 'NONE',  ( 1.000000000000000000, 0.000000000000000000, -3.469446951953614189E-15 ) ) ;
#76 = ORIENTED_EDGE ( 'NONE', *, *, #98, .T. ) ;
#77 = FACE_OUTER_BOUND ( 'NONE', #34, .T. ) ;
#78 = APPROVAL_PERSON_ORGANIZATION ( #175, #184, #130 ) ;
#79 = CARTESIAN_POINT ( 'NONE',  ( 2.967759138016651519E-15, 0.000000000000000000, 0.8499999999999965361 ) ) ;
#80 = EDGE_LOOP ( 'NONE', ( #76 ) ) ;
#81 = VERTEX_POINT ( 'NONE', #40 ) ;
#82 = LOCAL_TIME ( 7, 43, 21.00000000000000000, #153 ) ;
#83 = AXIS2_PLACEMENT_3D ( 'NONE', #224, #95, #145 ) ;
#84 = EDGE_CURVE ( 'NONE', #12, #12, #62, .T. ) ;
#85 = PERSON_AND_ORGANIZATION_ROLE ( 'classification_officer' ) ;
#86 = COORDINATED_UNIVERSAL_TIME_OFFSET ( 1, 0, .AHEAD. ) ;
#87 = AXIS2_PLACEMENT_3D ( 'NONE', #96, #37, #52 ) ;
#88 = PERSON_AND_ORGANIZATION ( #240, #203 ) ;
#89 = APPROVAL_DATE_TIME ( #132, #184 ) ;
#90 = FACE_BOUND ( 'NONE', #80, .T. ) ;
#91 = AXIS2_PLACEMENT_3D ( 'NONE', #43, #231, #123 ) ;
#92 = CC_DESIGN_DATE_AND_TIME_ASSIGNMENT ( #258, #174, ( #161 ) ) ;
#93 = CARTESIAN_POINT ( 'NONE',  ( 0.000000000000000000, 0.000000000000000000, 0.000000000000000000 ) ) ;
#94 = PRODUCT_DEFINITION_SHAPE ( 'NONE', 'NONE',  #47 ) ;
#95 = DIRECTION ( 'NONE',  ( 3.491481338843133355E-15, -0.000000000000000000, 1.000000000000000000 ) ) ;
#96 = CARTESIAN_POINT ( 'NONE',  ( 1.326762908760390423E-13, 0.000000000000000000, 38.00000000000000000 ) ) ;
#97 = CLOSED_SHELL ( 'NONE', ( #104, #190, #22, #106, #166, #176, #110, #7, #154, #162 ) ) ;
#98 = EDGE_CURVE ( 'NONE', #223, #223, #149, .T. ) ;
#99 = CC_DESIGN_APPROVAL ( #194, ( #47 ) ) ;
#100 = EDGE_LOOP ( 'NONE', ( #247 ) ) ;
#101 = CARTESIAN_POINT ( 'NONE',  ( 1.316288464743861212E-13, 0.000000000000000000, 37.69999999999999574 ) ) ;
#102 = ORIENTED_EDGE ( 'NONE', *, *, #121, .F. ) ;
#103 = DIRECTION ( 'NONE',  ( 3.491481338843133355E-15, -0.000000000000000000, 1.000000000000000000 ) ) ;
#104 = ADVANCED_FACE ( 'NONE', ( #210 ), #221, .F. ) ;
#105 = CARTESIAN_POINT ( 'NONE',  ( 1.500000000000127676, 0.000000000000000000, 37.69999999999998863 ) ) ;
#106 = ADVANCED_FACE ( 'NONE', ( #15, #20 ), #208, .T. ) ;
#107 = PERSON_AND_ORGANIZATION_ROLE ( 'design_supplier' ) ;
#108 = PERSON_AND_ORGANIZATION ( #240, #203 ) ;
#109 = PRODUCT_DEFINITION_FORMATION_WITH_SPECIFIED_SOURCE ( 'ANY', '', #266, .NOT_KNOWN. ) ;
#110 = ADVANCED_FACE ( 'NONE', ( #253 ), #181, .F. ) ;
#111 = CALENDAR_DATE ( 2023, 27, 9 ) ;
#112 = EDGE_CURVE ( 'NONE', #168, #168, #274, .T. ) ;
#113 = ORIENTED_EDGE ( 'NONE', *, *, #150, .T. ) ;
#114 = CARTESIAN_POINT ( 'NONE',  ( 3.871421004129297064E-15, 0.000000000000000000, 1.108819045102515943 ) ) ;
#115 = AXIS2_PLACEMENT_3D ( 'NONE', #165, #183, #265 ) ;
#116 = EDGE_LOOP ( 'NONE', ( #57 ) ) ;
#117 = CARTESIAN_POINT ( 'NONE',  ( 0.000000000000000000, 0.000000000000000000, 0.000000000000000000 ) ) ;
#118 = FACE_OUTER_BOUND ( 'NONE', #32, .T. ) ;
#119 = EDGE_LOOP ( 'NONE', ( #113 ) ) ;
#120 = FACE_OUTER_BOUND ( 'NONE', #119, .T. ) ;
#121 = EDGE_CURVE ( 'NONE', #63, #63, #152, .T. ) ;
#122 = AXIS2_PLACEMENT_3D ( 'NONE', #264, #142, #75 ) ;
#123 = DIRECTION ( 'NONE',  ( 1.000000000000000000, 0.000000000000000000, -3.479702918450098541E-15 ) ) ;
#124 = CARTESIAN_POINT ( 'NONE',  ( 2.967759138016663352E-15, 0.000000000000000000, 0.8500000000000000888 ) ) ;
#125 = CC_DESIGN_PERSON_AND_ORGANIZATION_ASSIGNMENT ( #196, #10, ( #109 ) ) ;
#126 = DIRECTION ( 'NONE',  ( 1.000000000000000000, 0.000000000000000000, -3.491481338843133355E-15 ) ) ;
#127 = AXIS2_PLACEMENT_3D ( 'NONE', #93, #59, #54 ) ;
#128 = CARTESIAN_POINT ( 'NONE',  ( 3.871421004129297064E-15, 0.000000000000000000, 1.108819045102515943 ) ) ;
#129 = SHAPE_DEFINITION_REPRESENTATION ( #94, #74 ) ;
#130 = APPROVAL_ROLE ( '' ) ;
#131 = PRODUCT_RELATED_PRODUCT_CATEGORY ( 'detail', '', ( #266 ) ) ;
#132 = DATE_AND_TIME ( #111, #155 ) ;
#133 = DESIGN_CONTEXT ( 'detailed design', #232, 'design' ) ;
#134 = APPROVAL_DATE_TIME ( #25, #227 ) ;
#135 = CALENDAR_DATE ( 2023, 27, 9 ) ;
#136 = EDGE_CURVE ( 'NONE', #146, #146, #211, .T. ) ;
#137 = EDGE_LOOP ( 'NONE', ( #64 ) ) ;
#138 = DIRECTION ( 'NONE',  ( 3.491481338843133355E-15, -0.000000000000000000, 1.000000000000000000 ) ) ;
#139 = ORIENTED_EDGE ( 'NONE', *, *, #136, .T. ) ;
#140 = CARTESIAN_POINT ( 'NONE',  ( 0.1850000000000001921, 0.000000000000000000, 0.05083118550994127766 ) ) ;
#141 = CIRCLE ( 'NONE', #68, 1.499999999999996225 ) ;
#142 = DIRECTION ( 'NONE',  ( 3.491481338843133355E-15, -0.000000000000000000, 1.000000000000000000 ) ) ;
#143 = FACE_OUTER_BOUND ( 'NONE', #245, .T. ) ;
#144 = ORIENTED_EDGE ( 'NONE', *, *, #112, .T. ) ;
#145 = DIRECTION ( 'NONE',  ( 1.000000000000000000, 0.000000000000000000, -3.535441866800558229E-15 ) ) ;
#146 = VERTEX_POINT ( 'NONE', #275 ) ;
#147 = DIRECTION ( 'NONE',  ( 1.000000000000000000, 0.000000000000000000, -3.479702918450098541E-15 ) ) ;
#148 = DIRECTION ( 'NONE',  ( 1.000000000000000000, 0.000000000000000000, 0.000000000000000000 ) ) ;
#149 = CIRCLE ( 'NONE', #42, 0.1490741737109300968 ) ;
#150 = EDGE_CURVE ( 'NONE', #21, #21, #177, .T. ) ;
#151 = APPLICATION_CONTEXT ( 'configuration controlled 3d designs of mechanical parts and assemblies' ) ;
#152 = CIRCLE ( 'NONE', #122, 1.500000000000000000 ) ;
#153 = COORDINATED_UNIVERSAL_TIME_OFFSET ( 1, 0, .AHEAD. ) ;
#154 = ADVANCED_FACE ( 'NONE', ( #143, #90 ), #192, .T. ) ;
#155 = LOCAL_TIME ( 7, 43, 21.00000000000000000, #28 ) ;
#156 = EDGE_LOOP ( 'NONE', ( #249 ) ) ;
#157 = DIRECTION ( 'NONE',  ( 1.000000000000000000, 0.000000000000000000, 0.000000000000000000 ) ) ;
#158 = DIRECTION ( 'NONE',  ( 1.000000000000000000, 0.000000000000000000, -5.782411586589390376E-15 ) ) ;
#159 = MANIFOLD_SOLID_BREP ( 'Corps-Déplacer/Copier1', #97 ) ;
#160 = DIRECTION ( 'NONE',  ( 3.491481338843133355E-15, -0.000000000000000000, 1.000000000000000000 ) ) ;
#161 = SECURITY_CLASSIFICATION ( '', '', #6 ) ;
#162 = ADVANCED_FACE ( 'NONE', ( #229, #73 ), #163, .T. ) ;
#163 = CYLINDRICAL_SURFACE ( 'NONE', #87, 1.499999999999998002 ) ;
#164 = EDGE_LOOP ( 'NONE', ( #262 ) ) ;
#165 = CARTESIAN_POINT ( 'NONE',  ( 1.774761356392356924E-16, 0.000000000000000000, 0.05083118550994192297 ) ) ;
#166 = ADVANCED_FACE ( 'NONE', ( #77, #120 ), #16, .T. ) ;
#167 =( GEOMETRIC_REPRESENTATION_CONTEXT ( 3 ) GLOBAL_UNCERTAINTY_ASSIGNED_CONTEXT ( ( #239 ) ) GLOBAL_UNIT_ASSIGNED_CONTEXT ( ( #191, #233, #41 ) ) REPRESENTATION_CONTEXT ( 'NONE', 'WORKASPACE' ) );
#168 = VERTEX_POINT ( 'NONE', #212 ) ;
#169 = FACE_OUTER_BOUND ( 'NONE', #222, .T. ) ;
#170 = CARTESIAN_POINT ( 'NONE',  ( 0.1150000000000003103, 0.000000000000000000, 0.09124570435321098516 ) ) ;
#171 = TOROIDAL_SURFACE ( 'NONE', #49, 1.115000000000000213, 1.000000000000000000 ) ;
#172 = FACE_OUTER_BOUND ( 'NONE', #182, .T. ) ;
#173 = VERTEX_POINT ( 'NONE', #105 ) ;
#174 = DATE_TIME_ROLE ( 'classification_date' ) ;
#175 = PERSON_AND_ORGANIZATION ( #240, #203 ) ;
#176 = ADVANCED_FACE ( 'NONE', ( #207, #252 ), #46, .T. ) ;
#177 = CIRCLE ( 'NONE', #83, 0.1149999999999999911 ) ;
#178 = PERSON_AND_ORGANIZATION_ROLE ( 'design_owner' ) ;
#179 = DIRECTION ( 'NONE',  ( -3.491481338843133355E-15, 0.000000000000000000, -1.000000000000000000 ) ) ;
#180 = ORIENTED_EDGE ( 'NONE', *, *, #218, .F. ) ;
#181 = PLANE ( 'NONE',  #193 ) ;
#182 = EDGE_LOOP ( 'NONE', ( #144 ) ) ;
#183 = DIRECTION ( 'NONE',  ( -3.491481338843133355E-15, 0.000000000000000000, -1.000000000000000000 ) ) ;
#184 = APPROVAL ( #29, 'UNSPECIFIED' ) ;
#185 = ORIENTED_EDGE ( 'NONE', *, *, #55, .T. ) ;
#186 = DIRECTION ( 'NONE',  ( 1.000000000000000000, 0.000000000000000000, -4.625929269271497155E-15 ) ) ;
#187 = CC_DESIGN_SECURITY_CLASSIFICATION ( #161, ( #109 ) ) ;
#188 = ORIENTED_EDGE ( 'NONE', *, *, #112, .F. ) ;
#189 = DIRECTION ( 'NONE',  ( -3.491481338843133355E-15, 0.000000000000000000, -1.000000000000000000 ) ) ;
#190 = ADVANCED_FACE ( 'NONE', ( #118, #30 ), #13, .T. ) ;
#191 =( LENGTH_UNIT ( ) NAMED_UNIT ( * ) SI_UNIT ( .MILLI., .METRE. ) );
#192 = CONICAL_SURFACE ( 'NONE', #31, 0.1490741737109300968, 0.2617993877991428020 ) ;
#193 = AXIS2_PLACEMENT_3D ( 'NONE', #58, #179, #17 ) ;
#194 = APPROVAL ( #215, 'UNSPECIFIED' ) ;
#195 = PERSON_AND_ORGANIZATION_ROLE ( 'creator' ) ;
#196 = PERSON_AND_ORGANIZATION ( #240, #203 ) ;
#197 = LOCAL_TIME ( 7, 43, 21.00000000000000000, #45 ) ;
#198 = AXIS2_PLACEMENT_3D ( 'NONE', #248, #35, #157 ) ;
#199 = APPLICATION_PROTOCOL_DEFINITION ( 'international standard', 'config_control_design', 1994, #232 ) ;
#200 = CARTESIAN_POINT ( 'NONE',  ( 0.000000000000000000, 0.000000000000000000, 0.000000000000000000 ) ) ;
#201 = EDGE_LOOP ( 'NONE', ( #38 ) ) ;
#202 = CARTESIAN_POINT ( 'NONE',  ( 1.316288464743861212E-13, 0.000000000000000000, 37.69999999999999574 ) ) ;
#203 = ORGANIZATION ( 'UNSPECIFIED', 'UNSPECIFIED', '' ) ;
#204 = CARTESIAN_POINT ( 'NONE',  ( 0.1490741737109339826, 0.000000000000000000, 1.108819045102515499 ) ) ;
#205 = DIRECTION ( 'NONE',  ( 3.491481338843133355E-15, -0.000000000000000000, 1.000000000000000000 ) ) ;
#206 = EDGE_LOOP ( 'NONE', ( #139 ) ) ;
#207 = FACE_BOUND ( 'NONE', #228, .T. ) ;
#208 = CONICAL_SURFACE ( 'NONE', #115, 0.1849999999999999978, 1.047197551196644261 ) ;
#209 = CARTESIAN_POINT ( 'NONE',  ( 1.500000000000021538, 0.000000000000000000, 6.150542866070420445 ) ) ;
#210 = FACE_OUTER_BOUND ( 'NONE', #51, .T. ) ;
#211 = CIRCLE ( 'NONE', #251, 1.199999999999993072 ) ;
#212 = CARTESIAN_POINT ( 'NONE',  ( 0.1150000000000030581, 0.000000000000000000, 0.8499999999999962030 ) ) ;
#213 = CIRCLE ( 'NONE', #127, 0.1150000000000000050 ) ;
#214 = PERSON_AND_ORGANIZATION ( #240, #203 ) ;
#215 = APPROVAL_STATUS ( 'not_yet_approved' ) ;
#216 = AXIS2_PLACEMENT_3D ( 'NONE', #202, #189, #220 ) ;
#217 = PERSON_AND_ORGANIZATION ( #240, #203 ) ;
#218 = EDGE_CURVE ( 'NONE', #173, #173, #141, .T. ) ;
#219 = DATE_AND_TIME ( #70, #82 ) ;
#220 = DIRECTION ( 'NONE',  ( -1.000000000000000000, 0.000000000000000000, 4.625929269271497155E-15 ) ) ;
#221 = PLANE ( 'NONE',  #255 ) ;
#222 = EDGE_LOOP ( 'NONE', ( #185 ) ) ;
#223 = VERTEX_POINT ( 'NONE', #204 ) ;
#224 = CARTESIAN_POINT ( 'NONE',  ( 3.185826739988352307E-16, 0.000000000000000000, 0.09124570435321138762 ) ) ;
#225 = ORIENTED_EDGE ( 'NONE', *, *, #136, .F. ) ;
#226 = DIRECTION ( 'NONE',  ( 1.000000000000000000, 0.000000000000000000, -2.909161648852421778E-15 ) ) ;
#227 = APPROVAL ( #242, 'UNSPECIFIED' ) ;
#228 = EDGE_LOOP ( 'NONE', ( #225 ) ) ;
#229 = FACE_OUTER_BOUND ( 'NONE', #72, .T. ) ;
#230 = CIRCLE ( 'NONE', #91, 0.1849999999999999978 ) ;
#231 = DIRECTION ( 'NONE',  ( 3.491481338843133355E-15, -0.000000000000000000, 1.000000000000000000 ) ) ;
#232 = APPLICATION_CONTEXT ( 'configuration controlled 3d designs of mechanical parts and assemblies' ) ;
#233 =( NAMED_UNIT ( * ) PLANE_ANGLE_UNIT ( ) SI_UNIT ( $, .RADIAN. ) );
#234 = DIRECTION ( 'NONE',  ( 3.491481338843133355E-15, -0.000000000000000000, 1.000000000000000000 ) ) ;
#235 = CC_DESIGN_PERSON_AND_ORGANIZATION_ASSIGNMENT ( #214, #107, ( #109 ) ) ;
#236 = CARTESIAN_POINT ( 'NONE',  ( 1.774761356392356924E-16, 0.000000000000000000, 0.05083118550994192297 ) ) ;
#237 = VERTEX_POINT ( 'NONE', #273 ) ;
#238 = APPROVAL_ROLE ( '' ) ;
#239 = UNCERTAINTY_MEASURE_WITH_UNIT (LENGTH_MEASURE( 1.000000000000000082E-05 ), #191, 'distance_accuracy_value', 'NONE');
#240 = PERSON ( 'UNSPECIFIED', 'UNSPECIFIED', 'UNSPECIFIED', ('UNSPECIFIED'), ('UNSPECIFIED'), ('UNSPECIFIED') ) ;
#241 = CALENDAR_DATE ( 2023, 27, 9 ) ;
#242 = APPROVAL_STATUS ( 'not_yet_approved' ) ;
#243 = AXIS2_PLACEMENT_3D ( 'NONE', #79, #138, #250 ) ;
#244 = DATE_AND_TIME ( #135, #4 ) ;
#245 = EDGE_LOOP ( 'NONE', ( #102 ) ) ;
#246 = DIRECTION ( 'NONE',  ( 1.000000000000000000, 0.000000000000000000, -3.491481338843133355E-15 ) ) ;
#247 = ORIENTED_EDGE ( 'NONE', *, *, #84, .T. ) ;
#248 = CARTESIAN_POINT ( 'NONE',  ( 1.326762908760390423E-13, 0.000000000000000000, 38.00000000000000000 ) ) ;
#249 = ORIENTED_EDGE ( 'NONE', *, *, #259, .T. ) ;
#250 = DIRECTION ( 'NONE',  ( 1.000000000000000000, 0.000000000000000000, -3.771137991253925516E-15 ) ) ;
#251 = AXIS2_PLACEMENT_3D ( 'NONE', #60, #268, #158 ) ;
#252 = FACE_OUTER_BOUND ( 'NONE', #36, .T. ) ;
#253 = FACE_OUTER_BOUND ( 'NONE', #206, .T. ) ;
#254 = CYLINDRICAL_SURFACE ( 'NONE', #267, 0.1849999999999999978 ) ;
#255 = AXIS2_PLACEMENT_3D ( 'NONE', #200, #205, #263 ) ;
#256 = DIRECTION ( 'NONE',  ( 3.491481338843133355E-15, -0.000000000000000000, 1.000000000000000000 ) ) ;
#257 = APPROVAL_PERSON_ORGANIZATION ( #88, #227, #238 ) ;
#258 = DATE_AND_TIME ( #241, #197 ) ;
#259 = EDGE_CURVE ( 'NONE', #237, #237, #213, .T. ) ;
#260 = COORDINATED_UNIVERSAL_TIME_OFFSET ( 1, 0, .AHEAD. ) ;
#261 = APPROVAL_ROLE ( '' ) ;
#262 = ORIENTED_EDGE ( 'NONE', *, *, #98, .F. ) ;
#263 = DIRECTION ( 'NONE',  ( 1.000000000000000000, 0.000000000000000000, -3.491481338843133355E-15 ) ) ;
#264 = CARTESIAN_POINT ( 'NONE',  ( 2.147450564063965136E-14, 0.000000000000000000, 6.150542866070425774 ) ) ;
#265 = DIRECTION ( 'NONE',  ( -1.000000000000000000, 0.000000000000000000, 3.479702918450098541E-15 ) ) ;
#266 = PRODUCT ( '318544', '318544', '', ( #69 ) ) ;
#267 = AXIS2_PLACEMENT_3D ( 'NONE', #1, #256, #148 ) ;
#268 = DIRECTION ( 'NONE',  ( 3.491481338843133355E-15, -0.000000000000000000, 1.000000000000000000 ) ) ;
#269 = CC_DESIGN_DATE_AND_TIME_ASSIGNMENT ( #219, #9, ( #47 ) ) ;
#270 = DIRECTION ( 'NONE',  ( 3.491481338843133355E-15, -0.000000000000000000, 1.000000000000000000 ) ) ;
#271 = DIRECTION ( 'NONE',  ( 3.491481338843133355E-15, -0.000000000000000000, 1.000000000000000000 ) ) ;
#272 = FACE_OUTER_BOUND ( 'NONE', #164, .T. ) ;
#273 = CARTESIAN_POINT ( 'NONE',  ( 0.1150000000000000050, 0.000000000000000000, -4.015203539669603654E-16 ) ) ;
#274 = CIRCLE ( 'NONE', #243, 0.1150000000000000883 ) ;
#275 = CARTESIAN_POINT ( 'NONE',  ( 1.200000000000125855, 0.000000000000000000, 37.99999999999999289 ) ) ;
ENDSEC;
END-ISO-10303-21;
