ISO-10303-21;
HEADER;
FILE_DESCRIPTION (( 'STEP AP203' ),
    '1' );
FILE_NAME ('31728.step',
    '2021-10-15T13:34:32',
    ( '' ),
    ( '' ),
    'SwSTEP 2.0',
    'SolidWorks 2019',
    '' );
FILE_SCHEMA (( 'CONFIG_CONTROL_DESIGN' ));
ENDSEC;

DATA;
#1 = DIRECTION ( 'NONE',  ( 0.0000000000000000000, 1.000000000000000000, 0.0000000000000000000 ) ) ;
#2 = EDGE_LOOP ( 'NONE', ( #141 ) ) ;
#3 = CARTESIAN_POINT ( 'NONE',  ( 0.0000000000000000000, 0.0000000000000000000, 0.0000000000000000000 ) ) ;
#4 = CONICAL_SURFACE ( 'NONE', #139, 1.599999999999992539, 1.221730476396026388 ) ;
#5 = DESIGN_CONTEXT ( 'detailed design', #27, 'design' ) ;
#6 = CARTESIAN_POINT ( 'NONE',  ( 2.033272449335712416E-15, 1.599999999999992539, 0.5823523748259289423 ) ) ;
#7 = FACE_BOUND ( 'NONE', #78, .T. ) ;
#8 = DIRECTION ( 'NONE',  ( 3.491481338843133355E-15, -1.224646799147353207E-16, 1.000000000000000000 ) ) ;
#9 = CIRCLE ( 'NONE', #21, 1.199999999999998401 ) ;
#10 = APPROVAL_DATE_TIME ( #63, #125 ) ;
#11 = PERSON_AND_ORGANIZATION ( #140, #114 ) ;
#12 = MANIFOLD_SOLID_BREP ( 'Corps-Déplacer/Copier1[2]', #168 ) ;
#13 = CALENDAR_DATE ( 2021, 15, 10 ) ;
#14 = CIRCLE ( 'NONE', #144, 1.599999999999994760 ) ;
#15 = DATE_TIME_ROLE ( 'classification_date' ) ;
#16 = PERSON_AND_ORGANIZATION_ROLE ( 'creator' ) ;
#17 = CC_DESIGN_APPROVAL ( #129, ( #143 ) ) ;
#18 = ADVANCED_FACE ( 'NONE', ( #186 ), #94, .F. ) ;
#19 = ORIENTED_EDGE ( 'NONE', *, *, #173, .T. ) ;
#20 = EDGE_LOOP ( 'NONE', ( #92 ) ) ;
#21 = AXIS2_PLACEMENT_3D ( 'NONE', #157, #117, #194 ) ;
#22 = EDGE_LOOP ( 'NONE', ( #66 ) ) ;
#23 = DIRECTION ( 'NONE',  ( 3.491481338843133355E-15, -1.224646799147353207E-16, 1.000000000000000000 ) ) ;
#24 = LOCAL_TIME ( 15, 34, 32.00000000000000000, #163 ) ;
#25 = CARTESIAN_POINT ( 'NONE',  ( 6.284666409917640040E-14, 1.199807826129478833E-32, 18.00000000000000000 ) ) ;
#26 = FACE_OUTER_BOUND ( 'NONE', #189, .T. ) ;
#27 = APPLICATION_CONTEXT ( 'configuration controlled 3d designs of mechanical parts and assemblies' ) ;
#28 = FACE_OUTER_BOUND ( 'NONE', #112, .T. ) ;
#29 = AXIS2_PLACEMENT_3D ( 'NONE', #170, #74, #184 ) ;
#30 = CALENDAR_DATE ( 2021, 15, 10 ) ;
#31 = APPLICATION_CONTEXT ( 'configuration controlled 3d designs of mechanical parts and assemblies' ) ;
#32 = DATE_AND_TIME ( #103, #148 ) ;
#33 = EDGE_CURVE ( 'NONE', #196, #196, #14, .T. ) ;
#34 = COORDINATED_UNIVERSAL_TIME_OFFSET ( 1, 0, .AHEAD. ) ;
#35 = PERSON_AND_ORGANIZATION_ROLE ( 'creator' ) ;
#36 = ORIENTED_EDGE ( 'NONE', *, *, #161, .F. ) ;
#37 = CC_DESIGN_PERSON_AND_ORGANIZATION_ASSIGNMENT ( #200, #87, ( #68 ) ) ;
#38 = AXIS2_PLACEMENT_3D ( 'NONE', #192, #131, #97 ) ;
#39 = ORIENTED_EDGE ( 'NONE', *, *, #181, .T. ) ;
#40 = FACE_OUTER_BOUND ( 'NONE', #188, .T. ) ;
#41 =( NAMED_UNIT ( * ) SI_UNIT ( $, .STERADIAN. ) SOLID_ANGLE_UNIT ( ) );
#42 = LOCAL_TIME ( 15, 34, 32.00000000000000000, #121 ) ;
#43 = DIRECTION ( 'NONE',  ( -3.491481338843133355E-15, 1.224646799147353207E-16, -1.000000000000000000 ) ) ;
#44 = PRODUCT_RELATED_PRODUCT_CATEGORY ( 'detail', '', ( #68 ) ) ;
#45 = APPROVAL_STATUS ( 'not_yet_approved' ) ;
#46 = LOCAL_TIME ( 15, 34, 32.00000000000000000, #34 ) ;
#47 = DATE_TIME_ROLE ( 'creation_date' ) ;
#48 = COORDINATED_UNIVERSAL_TIME_OFFSET ( 1, 0, .AHEAD. ) ;
#49 = APPLICATION_PROTOCOL_DEFINITION ( 'international standard', 'config_control_design', 1994, #27 ) ;
#50 = ORIENTED_EDGE ( 'NONE', *, *, #161, .T. ) ;
#51 = DIRECTION ( 'NONE',  ( -3.491481338843133355E-15, 1.224646799147353207E-16, -1.000000000000000000 ) ) ;
#52 = CLOSED_SHELL ( 'NONE', ( #80, #202, #178, #18 ) ) ;
#53 = PLANE ( 'NONE',  #62 ) ;
#54 = ORIENTED_EDGE ( 'NONE', *, *, #33, .T. ) ;
#55 = AXIS2_PLACEMENT_3D ( 'NONE', #130, #162, #57 ) ;
#56 = DIRECTION ( 'NONE',  ( -4.814824860968112404E-31, -1.000000000000000000, -1.355252715606886952E-16 ) ) ;
#57 = DIRECTION ( 'NONE',  ( 0.0000000000000000000, 1.000000000000000000, 0.0000000000000000000 ) ) ;
#58 = CYLINDRICAL_SURFACE ( 'NONE', #171, 1.599999999999993650 ) ;
#59 = CARTESIAN_POINT ( 'NONE',  ( 1.696859930677762937E-13, -5.951783443856137509E-15, 48.60000000000000142 ) ) ;
#60 = DIRECTION ( 'NONE',  ( 4.275831445896958607E-31, 1.000000000000000000, 1.224646799147353207E-16 ) ) ;
#61 = APPROVAL ( #201, 'UNSPECIFIED' ) ;
#62 = AXIS2_PLACEMENT_3D ( 'NONE', #111, #174, #82 ) ;
#63 = DATE_AND_TIME ( #30, #24 ) ;
#64 = PERSON_AND_ORGANIZATION_ROLE ( 'classification_officer' ) ;
#65 = ADVANCED_BREP_SHAPE_REPRESENTATION ( '31728', ( #77, #12, #29 ), #96 ) ;
#66 = ORIENTED_EDGE ( 'NONE', *, *, #181, .F. ) ;
#67 = CARTESIAN_POINT ( 'NONE',  ( 6.284666409917640040E-14, 1.599999999999992539, 18.00000000000000000 ) ) ;
#68 = PRODUCT ( '31728', '31728', '', ( #169 ) ) ;
#69 = VERTEX_POINT ( 'NONE', #67 ) ;
#70 = VERTEX_POINT ( 'NONE', #115 ) ;
#71 = DIRECTION ( 'NONE',  ( -3.491481338843133355E-15, 1.224646799147353207E-16, -1.000000000000000000 ) ) ;
#72 = DIRECTION ( 'NONE',  ( 4.814824860968112404E-31, 1.000000000000000000, 1.355252715606886952E-16 ) ) ;
#73 = CALENDAR_DATE ( 2021, 15, 10 ) ;
#74 = DIRECTION ( 'NONE',  ( 0.0000000000000000000, 0.0000000000000000000, 1.000000000000000000 ) ) ;
#75 = APPROVAL_ROLE ( '' ) ;
#76 = LOCAL_TIME ( 15, 34, 32.00000000000000000, #48 ) ;
#77 = MANIFOLD_SOLID_BREP ( 'Corps-Déplacer/Copier1[1]', #52 ) ;
#78 = EDGE_LOOP ( 'NONE', ( #39 ) ) ;
#79 = EDGE_LOOP ( 'NONE', ( #19 ) ) ;
#80 = ADVANCED_FACE ( 'NONE', ( #110 ), #53, .F. ) ;
#81 = AXIS2_PLACEMENT_3D ( 'NONE', #172, #51, #185 ) ;
#82 = DIRECTION ( 'NONE',  ( -4.275831445896958607E-31, -1.000000000000000000, -1.224646799147353207E-16 ) ) ;
#83 = FACE_OUTER_BOUND ( 'NONE', #79, .T. ) ;
#84 = CARTESIAN_POINT ( 'NONE',  ( 0.0000000000000000000, 0.0000000000000000000, 0.0000000000000000000 ) ) ;
#85 = AXIS2_PLACEMENT_3D ( 'NONE', #3, #146, #179 ) ;
#86 = CARTESIAN_POINT ( 'NONE',  ( 6.284666409917640040E-14, 1.599999999999992539, 18.00000000000000000 ) ) ;
#87 = PERSON_AND_ORGANIZATION_ROLE ( 'design_owner' ) ;
#88 = PERSON_AND_ORGANIZATION ( #140, #114 ) ;
#89 = CC_DESIGN_SECURITY_CLASSIFICATION ( #158, ( #123 ) ) ;
#90 = DATE_AND_TIME ( #134, #46 ) ;
#91 = DATE_AND_TIME ( #13, #76 ) ;
#92 = ORIENTED_EDGE ( 'NONE', *, *, #173, .F. ) ;
#93 = CC_DESIGN_PERSON_AND_ORGANIZATION_ASSIGNMENT ( #88, #16, ( #123 ) ) ;
#94 = PLANE ( 'NONE',  #81 ) ;
#95 = CC_DESIGN_PERSON_AND_ORGANIZATION_ASSIGNMENT ( #147, #180, ( #123 ) ) ;
#96 =( GEOMETRIC_REPRESENTATION_CONTEXT ( 3 ) GLOBAL_UNCERTAINTY_ASSIGNED_CONTEXT ( ( #156 ) ) GLOBAL_UNIT_ASSIGNED_CONTEXT ( ( #190, #193, #41 ) ) REPRESENTATION_CONTEXT ( 'NONE', 'WORKASPACE' ) );
#97 = DIRECTION ( 'NONE',  ( 0.0000000000000000000, 1.000000000000000000, 0.0000000000000000000 ) ) ;
#98 = CARTESIAN_POINT ( 'NONE',  ( 2.033272449335711627E-15, -7.131759718064332650E-17, 0.5823523748259287203 ) ) ;
#99 = ADVANCED_FACE ( 'NONE', ( #100, #40 ), #58, .T. ) ;
#100 = FACE_OUTER_BOUND ( 'NONE', #154, .T. ) ;
#101 = CARTESIAN_POINT ( 'NONE',  ( 2.033272449335711627E-15, -7.131759718064332650E-17, 0.5823523748259287203 ) ) ;
#102 = CC_DESIGN_DATE_AND_TIME_ASSIGNMENT ( #90, #47, ( #143 ) ) ;
#103 = CALENDAR_DATE ( 2021, 15, 10 ) ;
#104 = PERSON_AND_ORGANIZATION ( #140, #114 ) ;
#105 = APPROVAL_DATE_TIME ( #91, #129 ) ;
#106 = ADVANCED_FACE ( 'NONE', ( #26 ), #4, .T. ) ;
#107 = CONICAL_SURFACE ( 'NONE', #55, 1.199999999999998401, 0.7853981633974512766 ) ;
#108 = DIRECTION ( 'NONE',  ( -3.491481338843133355E-15, 1.224646799147353207E-16, -1.000000000000000000 ) ) ;
#109 = CC_DESIGN_DATE_AND_TIME_ASSIGNMENT ( #136, #15, ( #158 ) ) ;
#110 = FACE_OUTER_BOUND ( 'NONE', #122, .T. ) ;
#111 = CARTESIAN_POINT ( 'NONE',  ( 6.284666409917640040E-14, 1.199807826129478833E-32, 18.00000000000000000 ) ) ;
#112 = EDGE_LOOP ( 'NONE', ( #36 ) ) ;
#113 = CC_DESIGN_PERSON_AND_ORGANIZATION_ASSIGNMENT ( #120, #64, ( #158 ) ) ;
#114 = ORGANIZATION ( 'UNSPECIFIED', 'UNSPECIFIED', '' ) ;
#115 = CARTESIAN_POINT ( 'NONE',  ( 1.710825856033135470E-13, 1.199999999999992406, 49.00000000000000000 ) ) ;
#116 = APPROVAL_PERSON_ORGANIZATION ( #11, #61, #197 ) ;
#117 = DIRECTION ( 'NONE',  ( -3.491481338843133355E-15, 1.224646799147353207E-16, -1.000000000000000000 ) ) ;
#118 = APPROVAL_ROLE ( '' ) ;
#119 = CIRCLE ( 'NONE', #132, 1.599999999999998312 ) ;
#120 = PERSON_AND_ORGANIZATION ( #140, #114 ) ;
#121 = COORDINATED_UNIVERSAL_TIME_OFFSET ( 1, 0, .AHEAD. ) ;
#122 = EDGE_LOOP ( 'NONE', ( #50 ) ) ;
#123 = PRODUCT_DEFINITION_FORMATION_WITH_SPECIFIED_SOURCE ( 'ANY', '', #68, .NOT_KNOWN. ) ;
#124 = ORIENTED_EDGE ( 'NONE', *, *, #137, .T. ) ;
#125 = APPROVAL ( #45, 'UNSPECIFIED' ) ;
#126 = CARTESIAN_POINT ( 'NONE',  ( 1.696859930677762937E-13, 1.599999999999992539, 48.60000000000000142 ) ) ;
#127 = CIRCLE ( 'NONE', #38, 1.599999999999994760 ) ;
#128 = DIRECTION ( 'NONE',  ( -4.275831445896958607E-31, -1.000000000000000000, -1.224646799147353207E-16 ) ) ;
#129 = APPROVAL ( #203, 'UNSPECIFIED' ) ;
#130 = CARTESIAN_POINT ( 'NONE',  ( 1.710825856033135470E-13, -6.000769315822030937E-15, 49.00000000000000000 ) ) ;
#131 = DIRECTION ( 'NONE',  ( -3.491481338843133355E-15, 1.224646799147353207E-16, -1.000000000000000000 ) ) ;
#132 = AXIS2_PLACEMENT_3D ( 'NONE', #59, #43, #177 ) ;
#133 = FACE_OUTER_BOUND ( 'NONE', #20, .T. ) ;
#134 = CALENDAR_DATE ( 2021, 15, 10 ) ;
#135 = CC_DESIGN_APPROVAL ( #125, ( #123 ) ) ;
#136 = DATE_AND_TIME ( #73, #42 ) ;
#137 = EDGE_CURVE ( 'NONE', #145, #145, #153, .T. ) ;
#138 = PERSON_AND_ORGANIZATION ( #140, #114 ) ;
#139 = AXIS2_PLACEMENT_3D ( 'NONE', #98, #8, #56 ) ;
#140 = PERSON ( 'UNSPECIFIED', 'UNSPECIFIED', 'UNSPECIFIED', ('UNSPECIFIED'), ('UNSPECIFIED'), ('UNSPECIFIED') ) ;
#141 = ORIENTED_EDGE ( 'NONE', *, *, #33, .F. ) ;
#142 = CYLINDRICAL_SURFACE ( 'NONE', #85, 1.599999999999996314 ) ;
#143 = PRODUCT_DEFINITION ( 'UNKNOWN', '', #123, #5 ) ;
#144 = AXIS2_PLACEMENT_3D ( 'NONE', #152, #108, #1 ) ;
#145 = VERTEX_POINT ( 'NONE', #6 ) ;
#146 = DIRECTION ( 'NONE',  ( -3.491481338843133355E-15, 1.224646799147353207E-16, -1.000000000000000000 ) ) ;
#147 = PERSON_AND_ORGANIZATION ( #140, #114 ) ;
#148 = LOCAL_TIME ( 15, 34, 32.00000000000000000, #149 ) ;
#149 = COORDINATED_UNIVERSAL_TIME_OFFSET ( 1, 0, .AHEAD. ) ;
#150 = ORIENTED_EDGE ( 'NONE', *, *, #137, .F. ) ;
#151 = CC_DESIGN_PERSON_AND_ORGANIZATION_ASSIGNMENT ( #104, #35, ( #143 ) ) ;
#152 = CARTESIAN_POINT ( 'NONE',  ( 6.284666409917640040E-14, -2.204364238465235428E-15, 18.00000000000000000 ) ) ;
#153 = CIRCLE ( 'NONE', #195, 1.599999999999992539 ) ;
#154 = EDGE_LOOP ( 'NONE', ( #150 ) ) ;
#155 = PLANE ( 'NONE',  #187 ) ;
#156 = UNCERTAINTY_MEASURE_WITH_UNIT (LENGTH_MEASURE( 1.000000000000000082E-05 ), #190, 'distance_accuracy_value', 'NONE');
#157 = CARTESIAN_POINT ( 'NONE',  ( 1.710825856033135470E-13, -6.000769315822030937E-15, 49.00000000000000000 ) ) ;
#158 = SECURITY_CLASSIFICATION ( '', '', #165 ) ;
#159 = VERTEX_POINT ( 'NONE', #126 ) ;
#160 = DIRECTION ( 'NONE',  ( -3.491481338843133355E-15, 1.224646799147353207E-16, -1.000000000000000000 ) ) ;
#161 = EDGE_CURVE ( 'NONE', #69, #69, #127, .T. ) ;
#162 = DIRECTION ( 'NONE',  ( -3.491481338843133355E-15, 1.224646799147353207E-16, -1.000000000000000000 ) ) ;
#163 = COORDINATED_UNIVERSAL_TIME_OFFSET ( 1, 0, .AHEAD. ) ;
#164 = ADVANCED_FACE ( 'NONE', ( #175 ), #155, .T. ) ;
#165 = SECURITY_CLASSIFICATION_LEVEL ( 'unclassified' ) ;
#166 = PRODUCT_DEFINITION_SHAPE ( 'NONE', 'NONE',  #143 ) ;
#167 = APPROVAL_DATE_TIME ( #32, #61 ) ;
#168 = CLOSED_SHELL ( 'NONE', ( #106, #99, #164 ) ) ;
#169 = MECHANICAL_CONTEXT ( 'NONE', #31, 'mechanical' ) ;
#170 = CARTESIAN_POINT ( 'NONE',  ( 0.0000000000000000000, 0.0000000000000000000, 0.0000000000000000000 ) ) ;
#171 = AXIS2_PLACEMENT_3D ( 'NONE', #84, #160, #60 ) ;
#172 = CARTESIAN_POINT ( 'NONE',  ( 1.710825856033135470E-13, 8.998558695971043013E-33, 49.00000000000000000 ) ) ;
#173 = EDGE_CURVE ( 'NONE', #159, #159, #119, .T. ) ;
#174 = DIRECTION ( 'NONE',  ( 3.491481338843133355E-15, -1.224646799147353207E-16, 1.000000000000000000 ) ) ;
#175 = FACE_OUTER_BOUND ( 'NONE', #2, .T. ) ;
#176 = CC_DESIGN_APPROVAL ( #61, ( #158 ) ) ;
#177 = DIRECTION ( 'NONE',  ( 0.0000000000000000000, 1.000000000000000000, 0.0000000000000000000 ) ) ;
#178 = ADVANCED_FACE ( 'NONE', ( #133, #7 ), #107, .T. ) ;
#179 = DIRECTION ( 'NONE',  ( 4.275831445896958607E-31, 1.000000000000000000, 1.224646799147353207E-16 ) ) ;
#180 = PERSON_AND_ORGANIZATION_ROLE ( 'design_supplier' ) ;
#181 = EDGE_CURVE ( 'NONE', #70, #70, #9, .T. ) ;
#182 = APPLICATION_PROTOCOL_DEFINITION ( 'international standard', 'config_control_design', 1994, #31 ) ;
#183 = SHAPE_DEFINITION_REPRESENTATION ( #166, #65 ) ;
#184 = DIRECTION ( 'NONE',  ( 1.000000000000000000, 0.0000000000000000000, 0.0000000000000000000 ) ) ;
#185 = DIRECTION ( 'NONE',  ( 4.275831445896958607E-31, 1.000000000000000000, 1.224646799147353207E-16 ) ) ;
#186 = FACE_OUTER_BOUND ( 'NONE', #22, .T. ) ;
#187 = AXIS2_PLACEMENT_3D ( 'NONE', #25, #23, #128 ) ;
#188 = EDGE_LOOP ( 'NONE', ( #54 ) ) ;
#189 = EDGE_LOOP ( 'NONE', ( #124 ) ) ;
#190 =( LENGTH_UNIT ( ) NAMED_UNIT ( * ) SI_UNIT ( .MILLI., .METRE. ) );
#191 = APPROVAL_PERSON_ORGANIZATION ( #138, #129, #75 ) ;
#192 = CARTESIAN_POINT ( 'NONE',  ( 6.284666409917640040E-14, -2.204364238465235428E-15, 18.00000000000000000 ) ) ;
#193 =( NAMED_UNIT ( * ) PLANE_ANGLE_UNIT ( ) SI_UNIT ( $, .RADIAN. ) );
#194 = DIRECTION ( 'NONE',  ( 0.0000000000000000000, 1.000000000000000000, 0.0000000000000000000 ) ) ;
#195 = AXIS2_PLACEMENT_3D ( 'NONE', #101, #71, #72 ) ;
#196 = VERTEX_POINT ( 'NONE', #86 ) ;
#197 = APPROVAL_ROLE ( '' ) ;
#198 = PERSON_AND_ORGANIZATION ( #140, #114 ) ;
#199 = APPROVAL_PERSON_ORGANIZATION ( #198, #125, #118 ) ;
#200 = PERSON_AND_ORGANIZATION ( #140, #114 ) ;
#201 = APPROVAL_STATUS ( 'not_yet_approved' ) ;
#202 = ADVANCED_FACE ( 'NONE', ( #28, #83 ), #142, .T. ) ;
#203 = APPROVAL_STATUS ( 'not_yet_approved' ) ;
ENDSEC;
END-ISO-10303-21;
