ISO-10303-21;
HEADER;
FILE_DESCRIPTION (( 'STEP AP203' ),
    '1' );
FILE_NAME ('31717.step',
    '2021-10-15T13:34:31',
    ( '' ),
    ( '' ),
    'SwSTEP 2.0',
    'SolidWorks 2019',
    '' );
FILE_SCHEMA (( 'CONFIG_CONTROL_DESIGN' ));
ENDSEC;

DATA;
#1 = ORIENTED_EDGE ( 'NONE', *, *, #130, .T. ) ;
#2 = APPROVAL_ROLE ( '' ) ;
#3 = LOCAL_TIME ( 15, 34, 31.00000000000000000, #145 ) ;
#4 = AXIS2_PLACEMENT_3D ( 'NONE', #28, #87, #48 ) ;
#5 =( NAMED_UNIT ( * ) PLANE_ANGLE_UNIT ( ) SI_UNIT ( $, .RADIAN. ) );
#6 = FACE_BOUND ( 'NONE', #76, .T. ) ;
#7 = CC_DESIGN_SECURITY_CLASSIFICATION ( #69, ( #49 ) ) ;
#8 = LOCAL_TIME ( 15, 34, 31.00000000000000000, #126 ) ;
#9 = LOCAL_TIME ( 15, 34, 31.00000000000000000, #83 ) ;
#10 = PERSON_AND_ORGANIZATION_ROLE ( 'creator' ) ;
#11 = EDGE_CURVE ( 'NONE', #23, #23, #27, .T. ) ;
#12 = ORIENTED_EDGE ( 'NONE', *, *, #11, .F. ) ;
#13 = DIRECTION ( 'NONE',  ( -3.491481338843133355E-15, 1.224646799147353207E-16, -1.000000000000000000 ) ) ;
#14 = ORIENTED_EDGE ( 'NONE', *, *, #111, .F. ) ;
#15 = CARTESIAN_POINT ( 'NONE',  ( 3.367607494212279754E-15, -1.181197703304407445E-16, 0.9645211208054463858 ) ) ;
#16 = CARTESIAN_POINT ( 'NONE',  ( 9.077851480992146724E-14, 1.987181712026953393E-32, 26.00000000000000000 ) ) ;
#17 = EDGE_CURVE ( 'NONE', #159, #159, #67, .T. ) ;
#18 = CARTESIAN_POINT ( 'NONE',  ( 2.164718430082742680E-13, 2.149999999999992806, 62.00000000000000000 ) ) ;
#19 = AXIS2_PLACEMENT_3D ( 'NONE', #172, #188, #58 ) ;
#20 = CALENDAR_DATE ( 2021, 15, 10 ) ;
#21 = CARTESIAN_POINT ( 'NONE',  ( 9.077851480992146724E-14, 2.649999999999992806, 26.00000000000000000 ) ) ;
#22 = CC_DESIGN_APPROVAL ( #157, ( #154 ) ) ;
#23 = VERTEX_POINT ( 'NONE', #21 ) ;
#24 = SECURITY_CLASSIFICATION_LEVEL ( 'unclassified' ) ;
#25 = DESIGN_CONTEXT ( 'detailed design', #165, 'design' ) ;
#26 = MANIFOLD_SOLID_BREP ( 'Corps-Déplacer/Copier1[1]', #36 ) ;
#27 = CIRCLE ( 'NONE', #127, 2.649999999999995470 ) ;
#28 = CARTESIAN_POINT ( 'NONE',  ( 2.164718430082742680E-13, 1.612241766361485707E-32, 62.00000000000000000 ) ) ;
#29 = PLANE ( 'NONE',  #71 ) ;
#30 = DIRECTION ( 'NONE',  ( -4.360596100499413416E-31, -1.000000000000000000, -1.227398685832649762E-16 ) ) ;
#31 = CC_DESIGN_PERSON_AND_ORGANIZATION_ASSIGNMENT ( #103, #182, ( #49 ) ) ;
#32 = PLANE ( 'NONE',  #4 ) ;
#33 = CYLINDRICAL_SURFACE ( 'NONE', #143, 2.649999999999997691 ) ;
#34 = EDGE_CURVE ( 'NONE', #35, #35, #177, .T. ) ;
#35 = VERTEX_POINT ( 'NONE', #18 ) ;
#36 = CLOSED_SHELL ( 'NONE', ( #40, #180, #186, #101 ) ) ;
#37 = ADVANCED_BREP_SHAPE_REPRESENTATION ( '31717', ( #26, #93, #78 ), #147 ) ;
#38 = PERSON_AND_ORGANIZATION ( #203, #187 ) ;
#39 = CARTESIAN_POINT ( 'NONE',  ( 3.367607494212280543E-15, 2.649999999999992806, 0.9645211208054467189 ) ) ;
#40 = ADVANCED_FACE ( 'NONE', ( #190 ), #29, .F. ) ;
#41 = APPROVAL_PERSON_ORGANIZATION ( #100, #80, #198 ) ;
#42 = PERSON_AND_ORGANIZATION_ROLE ( 'design_owner' ) ;
#43 = CLOSED_SHELL ( 'NONE', ( #146, #135, #169 ) ) ;
#44 = CC_DESIGN_PERSON_AND_ORGANIZATION_ASSIGNMENT ( #51, #110, ( #154 ) ) ;
#45 = EDGE_LOOP ( 'NONE', ( #74 ) ) ;
#46 = EDGE_LOOP ( 'NONE', ( #119 ) ) ;
#47 = FACE_OUTER_BOUND ( 'NONE', #62, .T. ) ;
#48 = DIRECTION ( 'NONE',  ( 4.275831445896958607E-31, 1.000000000000000000, 1.224646799147353207E-16 ) ) ;
#49 = PRODUCT_DEFINITION_FORMATION_WITH_SPECIFIED_SOURCE ( 'ANY', '', #189, .NOT_KNOWN. ) ;
#50 = CARTESIAN_POINT ( 'NONE',  ( 9.077851480992146724E-14, 1.987181712026953393E-32, 26.00000000000000000 ) ) ;
#51 = PERSON_AND_ORGANIZATION ( #203, #187 ) ;
#52 = CARTESIAN_POINT ( 'NONE',  ( 2.164718430082742680E-13, -7.592810154713590230E-15, 62.00000000000000000 ) ) ;
#53 = APPROVAL_DATE_TIME ( #140, #138 ) ;
#54 = DIRECTION ( 'NONE',  ( 0.0000000000000000000, 1.000000000000000000, 0.0000000000000000000 ) ) ;
#55 = DATE_TIME_ROLE ( 'classification_date' ) ;
#56 = CIRCLE ( 'NONE', #117, 2.649999999999999911 ) ;
#57 = EDGE_LOOP ( 'NONE', ( #12 ) ) ;
#58 = DIRECTION ( 'NONE',  ( 0.0000000000000000000, 1.000000000000000000, 0.0000000000000000000 ) ) ;
#59 = AXIS2_PLACEMENT_3D ( 'NONE', #64, #77, #152 ) ;
#60 = ORIENTED_EDGE ( 'NONE', *, *, #130, .F. ) ;
#61 = CARTESIAN_POINT ( 'NONE',  ( 0.0000000000000000000, 0.0000000000000000000, 0.0000000000000000000 ) ) ;
#62 = EDGE_LOOP ( 'NONE', ( #168 ) ) ;
#63 = APPROVAL_PERSON_ORGANIZATION ( #194, #138, #161 ) ;
#64 = CARTESIAN_POINT ( 'NONE',  ( 9.077851480992146724E-14, -3.184081677783118191E-15, 26.00000000000000000 ) ) ;
#65 = APPLICATION_PROTOCOL_DEFINITION ( 'international standard', 'config_control_design', 1994, #151 ) ;
#66 = CARTESIAN_POINT ( 'NONE',  ( 9.077851480992146724E-14, 2.649999999999992806, 26.00000000000000000 ) ) ;
#67 = CIRCLE ( 'NONE', #105, 2.649999999999992806 ) ;
#68 = CONICAL_SURFACE ( 'NONE', #108, 2.150000000000000355, 0.7853981633974473908 ) ;
#69 = SECURITY_CLASSIFICATION ( '', '', #24 ) ;
#70 = PERSON_AND_ORGANIZATION_ROLE ( 'classification_officer' ) ;
#71 = AXIS2_PLACEMENT_3D ( 'NONE', #16, #75, #136 ) ;
#72 = EDGE_LOOP ( 'NONE', ( #120 ) ) ;
#73 = EDGE_LOOP ( 'NONE', ( #199 ) ) ;
#74 = ORIENTED_EDGE ( 'NONE', *, *, #17, .F. ) ;
#75 = DIRECTION ( 'NONE',  ( 3.491481338843133355E-15, -1.224646799147353207E-16, 1.000000000000000000 ) ) ;
#76 = EDGE_LOOP ( 'NONE', ( #150 ) ) ;
#77 = DIRECTION ( 'NONE',  ( -3.491481338843133355E-15, 1.224646799147353207E-16, -1.000000000000000000 ) ) ;
#78 = AXIS2_PLACEMENT_3D ( 'NONE', #115, #96, #99 ) ;
#79 = CALENDAR_DATE ( 2021, 15, 10 ) ;
#80 = APPROVAL ( #132, 'UNSPECIFIED' ) ;
#81 = DATE_AND_TIME ( #175, #133 ) ;
#82 = APPLICATION_PROTOCOL_DEFINITION ( 'international standard', 'config_control_design', 1994, #165 ) ;
#83 = COORDINATED_UNIVERSAL_TIME_OFFSET ( 1, 0, .AHEAD. ) ;
#84 = PERSON_AND_ORGANIZATION ( #203, #187 ) ;
#85 = EDGE_LOOP ( 'NONE', ( #14 ) ) ;
#86 = LOCAL_TIME ( 15, 34, 31.00000000000000000, #141 ) ;
#87 = DIRECTION ( 'NONE',  ( -3.491481338843133355E-15, 1.224646799147353207E-16, -1.000000000000000000 ) ) ;
#88 = FACE_OUTER_BOUND ( 'NONE', #45, .T. ) ;
#89 = FACE_OUTER_BOUND ( 'NONE', #57, .T. ) ;
#90 = PRODUCT_DEFINITION_SHAPE ( 'NONE', 'NONE',  #154 ) ;
#91 = CYLINDRICAL_SURFACE ( 'NONE', #113, 2.649999999999994582 ) ;
#92 = DIRECTION ( 'NONE',  ( -3.491481338843133355E-15, 1.224646799147353207E-16, -1.000000000000000000 ) ) ;
#93 = MANIFOLD_SOLID_BREP ( 'Corps-Déplacer/Copier1[2]', #43 ) ;
#94 = APPROVAL_PERSON_ORGANIZATION ( #144, #157, #2 ) ;
#95 = CC_DESIGN_PERSON_AND_ORGANIZATION_ASSIGNMENT ( #38, #42, ( #189 ) ) ;
#96 = DIRECTION ( 'NONE',  ( 0.0000000000000000000, 0.0000000000000000000, 1.000000000000000000 ) ) ;
#97 =( LENGTH_UNIT ( ) NAMED_UNIT ( * ) SI_UNIT ( .MILLI., .METRE. ) );
#98 = CC_DESIGN_DATE_AND_TIME_ASSIGNMENT ( #81, #112, ( #154 ) ) ;
#99 = DIRECTION ( 'NONE',  ( 1.000000000000000000, 0.0000000000000000000, 0.0000000000000000000 ) ) ;
#100 = PERSON_AND_ORGANIZATION ( #203, #187 ) ;
#101 = ADVANCED_FACE ( 'NONE', ( #200 ), #32, .F. ) ;
#102 = UNCERTAINTY_MEASURE_WITH_UNIT (LENGTH_MEASURE( 1.000000000000000082E-05 ), #97, 'distance_accuracy_value', 'NONE');
#103 = PERSON_AND_ORGANIZATION ( #203, #187 ) ;
#104 = DIRECTION ( 'NONE',  ( 3.491481338843133355E-15, -1.224646799147353207E-16, 1.000000000000000000 ) ) ;
#105 = AXIS2_PLACEMENT_3D ( 'NONE', #15, #107, #137 ) ;
#106 = CC_DESIGN_APPROVAL ( #80, ( #69 ) ) ;
#107 = DIRECTION ( 'NONE',  ( -3.491481338843133355E-15, 1.224646799147353207E-16, -1.000000000000000000 ) ) ;
#108 = AXIS2_PLACEMENT_3D ( 'NONE', #52, #196, #54 ) ;
#109 = DIRECTION ( 'NONE',  ( -4.275831445896958607E-31, -1.000000000000000000, -1.224646799147353207E-16 ) ) ;
#110 = PERSON_AND_ORGANIZATION_ROLE ( 'creator' ) ;
#111 = EDGE_CURVE ( 'NONE', #162, #162, #118, .T. ) ;
#112 = DATE_TIME_ROLE ( 'creation_date' ) ;
#113 = AXIS2_PLACEMENT_3D ( 'NONE', #153, #13, #191 ) ;
#114 = PERSON_AND_ORGANIZATION ( #203, #187 ) ;
#115 = CARTESIAN_POINT ( 'NONE',  ( 0.0000000000000000000, 0.0000000000000000000, 0.0000000000000000000 ) ) ;
#116 = PRODUCT_RELATED_PRODUCT_CATEGORY ( 'detail', '', ( #189 ) ) ;
#117 = AXIS2_PLACEMENT_3D ( 'NONE', #123, #201, #121 ) ;
#118 = CIRCLE ( 'NONE', #59, 2.649999999999995470 ) ;
#119 = ORIENTED_EDGE ( 'NONE', *, *, #34, .F. ) ;
#120 = ORIENTED_EDGE ( 'NONE', *, *, #11, .T. ) ;
#121 = DIRECTION ( 'NONE',  ( 0.0000000000000000000, 1.000000000000000000, 0.0000000000000000000 ) ) ;
#122 = DIRECTION ( 'NONE',  ( -3.491481338843133355E-15, 1.224646799147353207E-16, -1.000000000000000000 ) ) ;
#123 = CARTESIAN_POINT ( 'NONE',  ( 2.147261023388527077E-13, -7.531577814756222656E-15, 61.50000000000000000 ) ) ;
#124 = APPROVAL_STATUS ( 'not_yet_approved' ) ;
#125 = COORDINATED_UNIVERSAL_TIME_OFFSET ( 1, 0, .AHEAD. ) ;
#126 = COORDINATED_UNIVERSAL_TIME_OFFSET ( 1, 0, .AHEAD. ) ;
#127 = AXIS2_PLACEMENT_3D ( 'NONE', #170, #122, #134 ) ;
#128 = FACE_OUTER_BOUND ( 'NONE', #184, .T. ) ;
#129 = CALENDAR_DATE ( 2021, 15, 10 ) ;
#130 = EDGE_CURVE ( 'NONE', #163, #163, #56, .T. ) ;
#131 = SHAPE_DEFINITION_REPRESENTATION ( #90, #37 ) ;
#132 = APPROVAL_STATUS ( 'not_yet_approved' ) ;
#133 = LOCAL_TIME ( 15, 34, 31.00000000000000000, #125 ) ;
#134 = DIRECTION ( 'NONE',  ( 0.0000000000000000000, 1.000000000000000000, 0.0000000000000000000 ) ) ;
#135 = ADVANCED_FACE ( 'NONE', ( #88, #155 ), #91, .T. ) ;
#136 = DIRECTION ( 'NONE',  ( -4.275831445896958607E-31, -1.000000000000000000, -1.224646799147353207E-16 ) ) ;
#137 = DIRECTION ( 'NONE',  ( 4.360596100499413416E-31, 1.000000000000000000, 1.227398685832649762E-16 ) ) ;
#138 = APPROVAL ( #176, 'UNSPECIFIED' ) ;
#139 = CARTESIAN_POINT ( 'NONE',  ( 2.147261023388527077E-13, 2.649999999999992806, 61.50000000000000000 ) ) ;
#140 = DATE_AND_TIME ( #79, #86 ) ;
#141 = COORDINATED_UNIVERSAL_TIME_OFFSET ( 1, 0, .AHEAD. ) ;
#142 = CC_DESIGN_PERSON_AND_ORGANIZATION_ASSIGNMENT ( #84, #70, ( #69 ) ) ;
#143 = AXIS2_PLACEMENT_3D ( 'NONE', #61, #92, #158 ) ;
#144 = PERSON_AND_ORGANIZATION ( #203, #187 ) ;
#145 = COORDINATED_UNIVERSAL_TIME_OFFSET ( 1, 0, .AHEAD. ) ;
#146 = ADVANCED_FACE ( 'NONE', ( #47 ), #173, .T. ) ;
#147 =( GEOMETRIC_REPRESENTATION_CONTEXT ( 3 ) GLOBAL_UNCERTAINTY_ASSIGNED_CONTEXT ( ( #102 ) ) GLOBAL_UNIT_ASSIGNED_CONTEXT ( ( #97, #5, #195 ) ) REPRESENTATION_CONTEXT ( 'NONE', 'WORKASPACE' ) );
#148 = EDGE_LOOP ( 'NONE', ( #1 ) ) ;
#149 = CALENDAR_DATE ( 2021, 15, 10 ) ;
#150 = ORIENTED_EDGE ( 'NONE', *, *, #34, .T. ) ;
#151 = APPLICATION_CONTEXT ( 'configuration controlled 3d designs of mechanical parts and assemblies' ) ;
#152 = DIRECTION ( 'NONE',  ( 0.0000000000000000000, 1.000000000000000000, 0.0000000000000000000 ) ) ;
#153 = CARTESIAN_POINT ( 'NONE',  ( 0.0000000000000000000, 0.0000000000000000000, 0.0000000000000000000 ) ) ;
#154 = PRODUCT_DEFINITION ( 'UNKNOWN', '', #49, #25 ) ;
#155 = FACE_OUTER_BOUND ( 'NONE', #73, .T. ) ;
#156 = PLANE ( 'NONE',  #192 ) ;
#157 = APPROVAL ( #124, 'UNSPECIFIED' ) ;
#158 = DIRECTION ( 'NONE',  ( 4.275831445896959482E-31, 1.000000000000000000, 1.224646799147353207E-16 ) ) ;
#159 = VERTEX_POINT ( 'NONE', #39 ) ;
#160 = AXIS2_PLACEMENT_3D ( 'NONE', #171, #202, #30 ) ;
#161 = APPROVAL_ROLE ( '' ) ;
#162 = VERTEX_POINT ( 'NONE', #66 ) ;
#163 = VERTEX_POINT ( 'NONE', #139 ) ;
#164 = APPROVAL_DATE_TIME ( #181, #80 ) ;
#165 = APPLICATION_CONTEXT ( 'configuration controlled 3d designs of mechanical parts and assemblies' ) ;
#166 = DATE_AND_TIME ( #149, #9 ) ;
#167 = CC_DESIGN_DATE_AND_TIME_ASSIGNMENT ( #166, #55, ( #69 ) ) ;
#168 = ORIENTED_EDGE ( 'NONE', *, *, #17, .T. ) ;
#169 = ADVANCED_FACE ( 'NONE', ( #185 ), #156, .T. ) ;
#170 = CARTESIAN_POINT ( 'NONE',  ( 9.077851480992146724E-14, -3.184081677783118191E-15, 26.00000000000000000 ) ) ;
#171 = CARTESIAN_POINT ( 'NONE',  ( 3.367607494212279754E-15, -1.181197703304407445E-16, 0.9645211208054463858 ) ) ;
#172 = CARTESIAN_POINT ( 'NONE',  ( 2.164718430082742680E-13, -7.592810154713590230E-15, 62.00000000000000000 ) ) ;
#173 = CONICAL_SURFACE ( 'NONE', #160, 2.649999999999992806, 1.221730476396026388 ) ;
#174 = FACE_OUTER_BOUND ( 'NONE', #148, .T. ) ;
#175 = CALENDAR_DATE ( 2021, 15, 10 ) ;
#176 = APPROVAL_STATUS ( 'not_yet_approved' ) ;
#177 = CIRCLE ( 'NONE', #19, 2.150000000000000355 ) ;
#178 = APPROVAL_DATE_TIME ( #193, #157 ) ;
#179 = MECHANICAL_CONTEXT ( 'NONE', #151, 'mechanical' ) ;
#180 = ADVANCED_FACE ( 'NONE', ( #89, #174 ), #33, .T. ) ;
#181 = DATE_AND_TIME ( #129, #3 ) ;
#182 = PERSON_AND_ORGANIZATION_ROLE ( 'design_supplier' ) ;
#183 = CC_DESIGN_PERSON_AND_ORGANIZATION_ASSIGNMENT ( #114, #10, ( #49 ) ) ;
#184 = EDGE_LOOP ( 'NONE', ( #60 ) ) ;
#185 = FACE_OUTER_BOUND ( 'NONE', #85, .T. ) ;
#186 = ADVANCED_FACE ( 'NONE', ( #128, #6 ), #68, .T. ) ;
#187 = ORGANIZATION ( 'UNSPECIFIED', 'UNSPECIFIED', '' ) ;
#188 = DIRECTION ( 'NONE',  ( -3.491481338843133355E-15, 1.224646799147353207E-16, -1.000000000000000000 ) ) ;
#189 = PRODUCT ( '31717', '31717', '', ( #179 ) ) ;
#190 = FACE_OUTER_BOUND ( 'NONE', #72, .T. ) ;
#191 = DIRECTION ( 'NONE',  ( 4.275831445896958607E-31, 1.000000000000000000, 1.224646799147353207E-16 ) ) ;
#192 = AXIS2_PLACEMENT_3D ( 'NONE', #50, #104, #109 ) ;
#193 = DATE_AND_TIME ( #20, #8 ) ;
#194 = PERSON_AND_ORGANIZATION ( #203, #187 ) ;
#195 =( NAMED_UNIT ( * ) SI_UNIT ( $, .STERADIAN. ) SOLID_ANGLE_UNIT ( ) );
#196 = DIRECTION ( 'NONE',  ( -3.491481338843133355E-15, 1.224646799147353207E-16, -1.000000000000000000 ) ) ;
#197 = CC_DESIGN_APPROVAL ( #138, ( #49 ) ) ;
#198 = APPROVAL_ROLE ( '' ) ;
#199 = ORIENTED_EDGE ( 'NONE', *, *, #111, .T. ) ;
#200 = FACE_OUTER_BOUND ( 'NONE', #46, .T. ) ;
#201 = DIRECTION ( 'NONE',  ( -3.491481338843133355E-15, 1.224646799147353207E-16, -1.000000000000000000 ) ) ;
#202 = DIRECTION ( 'NONE',  ( 3.491481338843133355E-15, -1.224646799147353207E-16, 1.000000000000000000 ) ) ;
#203 = PERSON ( 'UNSPECIFIED', 'UNSPECIFIED', 'UNSPECIFIED', ('UNSPECIFIED'), ('UNSPECIFIED'), ('UNSPECIFIED') ) ;
ENDSEC;
END-ISO-10303-21;
