ISO-10303-21;
HEADER;
FILE_DESCRIPTION (( 'STEP AP203' ),
    '1' );
FILE_NAME ('316.step',
    '2021-09-03T07:21:56',
    ( '' ),
    ( '' ),
    'SwSTEP 2.0',
    'SolidWorks 2019',
    '' );
FILE_SCHEMA (( 'CONFIG_CONTROL_DESIGN' ));
ENDSEC;

DATA;
#1 = ADVANCED_FACE ( 'NONE', ( #262 ), #23, .F. ) ;
#2 = CONICAL_SURFACE ( 'NONE', #330, 2.300000000000001155, 0.7853981633974453924 ) ;
#3 = APPROVAL_PERSON_ORGANIZATION ( #287, #51, #222 ) ;
#4 = DATE_AND_TIME ( #220, #167 ) ;
#5 =( NAMED_UNIT ( * ) PLANE_ANGLE_UNIT ( ) SI_UNIT ( $, .RADIAN. ) );
#6 = ORIENTED_EDGE ( 'NONE', *, *, #272, .F. ) ;
#7 = CARTESIAN_POINT ( 'NONE',  ( 7.332110811570580046E-14, 2.174651684859686415E-32, 21.00000000000000000 ) ) ;
#8 = APPROVAL_STATUS ( 'not_yet_approved' ) ;
#9 = VERTEX_POINT ( 'NONE', #139 ) ;
#10 = CARTESIAN_POINT ( 'NONE',  ( 2.283428795603408836E-13, -8.009190066423689102E-15, 65.40000000000000568 ) ) ;
#11 = FACE_OUTER_BOUND ( 'NONE', #60, .T. ) ;
#12 = DIRECTION ( 'NONE',  ( -3.491481338843133355E-15, 1.224646799147353207E-16, -1.000000000000000000 ) ) ;
#13 = CC_DESIGN_PERSON_AND_ORGANIZATION_ASSIGNMENT ( #137, #56, ( #192 ) ) ;
#14 = APPLICATION_CONTEXT ( 'configuration controlled 3d designs of mechanical parts and assemblies' ) ;
#15 = DIRECTION ( 'NONE',  ( 0.0000000000000000000, 1.000000000000000000, 0.0000000000000000000 ) ) ;
#16 = ORGANIZATION ( 'UNSPECIFIED', 'UNSPECIFIED', '' ) ;
#17 = LINE ( 'NONE', #230, #129 ) ;
#18 = UNCERTAINTY_MEASURE_WITH_UNIT (LENGTH_MEASURE( 1.000000000000000082E-05 ), #265, 'distance_accuracy_value', 'NONE');
#19 = ORIENTED_EDGE ( 'NONE', *, *, #111, .F. ) ;
#20 = VERTEX_POINT ( 'NONE', #109 ) ;
#21 = ORIENTED_EDGE ( 'NONE', *, *, #291, .T. ) ;
#22 = EDGE_CURVE ( 'NONE', #270, #102, #58, .T. ) ;
#23 = PLANE ( 'NONE',  #156 ) ;
#24 = CIRCLE ( 'NONE', #90, 2.300000000000001155 ) ;
#25 = LOCAL_TIME ( 9, 21, 56.00000000000000000, #61 ) ;
#26 = PERSON_AND_ORGANIZATION ( #142, #16 ) ;
#27 = DIRECTION ( 'NONE',  ( -4.275831445896958607E-31, -1.000000000000000000, -1.224646799147353207E-16 ) ) ;
#28 = ADVANCED_FACE ( 'NONE', ( #206 ), #2, .T. ) ;
#29 = DIRECTION ( 'NONE',  ( 0.0000000000000000000, 1.000000000000000000, 0.0000000000000000000 ) ) ;
#30 = DIRECTION ( 'NONE',  ( -3.491481338843133355E-15, 1.224646799147353207E-16, -1.000000000000000000 ) ) ;
#31 = CIRCLE ( 'NONE', #327, 2.899999999999992806 ) ;
#32 = CYLINDRICAL_SURFACE ( 'NONE', #255, 2.899999999999998135 ) ;
#33 = APPLICATION_CONTEXT ( 'configuration controlled 3d designs of mechanical parts and assemblies' ) ;
#34 = VERTEX_POINT ( 'NONE', #151 ) ;
#35 = CARTESIAN_POINT ( 'NONE',  ( 6.083891551883385747E-15, -2.133941898094834969E-16, 1.742495795179939577 ) ) ;
#36 = CIRCLE ( 'NONE', #232, 2.899999999999992806 ) ;
#37 = CC_DESIGN_APPROVAL ( #106, ( #130 ) ) ;
#38 = ORIENTED_EDGE ( 'NONE', *, *, #307, .T. ) ;
#39 = PERSON_AND_ORGANIZATION_ROLE ( 'creator' ) ;
#40 = DIRECTION ( 'NONE',  ( -3.491481338843133355E-15, 1.224646799147353207E-16, -1.000000000000000000 ) ) ;
#41 = ADVANCED_FACE ( 'NONE', ( #66 ), #254, .T. ) ;
#42 = DIRECTION ( 'NONE',  ( 0.0000000000000000000, 1.000000000000000000, 0.0000000000000000000 ) ) ;
#43 = CC_DESIGN_DATE_AND_TIME_ASSIGNMENT ( #184, #283, ( #130 ) ) ;
#44 = PERSON_AND_ORGANIZATION ( #142, #16 ) ;
#45 = CLOSED_SHELL ( 'NONE', ( #41, #333, #165, #113, #96 ) ) ;
#46 = ORIENTED_EDGE ( 'NONE', *, *, #205, .T. ) ;
#47 = FACE_OUTER_BOUND ( 'NONE', #231, .T. ) ;
#48 = ADVANCED_FACE ( 'NONE', ( #47 ), #99, .T. ) ;
#49 = AXIS2_PLACEMENT_3D ( 'NONE', #64, #112, #57 ) ;
#50 = ORIENTED_EDGE ( 'NONE', *, *, #190, .T. ) ;
#51 = APPROVAL ( #8, 'UNSPECIFIED' ) ;
#52 = CARTESIAN_POINT ( 'NONE',  ( 2.304377683636468267E-13, 1.724723750061125028E-32, 66.00000000000000000 ) ) ;
#53 = MANIFOLD_SOLID_BREP ( 'Corps-Déplacer/Copier1[2]', #45 ) ;
#54 = CLOSED_SHELL ( 'NONE', ( #28, #153, #1, #256, #48, #221 ) ) ;
#55 =( GEOMETRIC_REPRESENTATION_CONTEXT ( 3 ) GLOBAL_UNCERTAINTY_ASSIGNED_CONTEXT ( ( #18 ) ) GLOBAL_UNIT_ASSIGNED_CONTEXT ( ( #265, #5, #95 ) ) REPRESENTATION_CONTEXT ( 'NONE', 'WORKASPACE' ) );
#56 = PERSON_AND_ORGANIZATION_ROLE ( 'classification_officer' ) ;
#57 = DIRECTION ( 'NONE',  ( 0.0000000000000000000, 1.000000000000000000, 0.0000000000000000000 ) ) ;
#58 = CIRCLE ( 'NONE', #136, 2.899999999999995470 ) ;
#59 = AXIS2_PLACEMENT_3D ( 'NONE', #52, #261, #336 ) ;
#60 = EDGE_LOOP ( 'NONE', ( #200, #247, #160, #145 ) ) ;
#61 = COORDINATED_UNIVERSAL_TIME_OFFSET ( 1, 0, .AHEAD. ) ;
#62 = LINE ( 'NONE', #298, #285 ) ;
#63 = ORIENTED_EDGE ( 'NONE', *, *, #313, .T. ) ;
#64 = CARTESIAN_POINT ( 'NONE',  ( 7.332110811570580046E-14, -2.571758278209441661E-15, 21.00000000000000000 ) ) ;
#65 = CARTESIAN_POINT ( 'NONE',  ( 0.0000000000000000000, 0.0000000000000000000, 0.0000000000000000000 ) ) ;
#66 = FACE_OUTER_BOUND ( 'NONE', #124, .T. ) ;
#67 = APPLICATION_PROTOCOL_DEFINITION ( 'international standard', 'config_control_design', 1994, #14 ) ;
#68 = APPROVAL_ROLE ( '' ) ;
#69 = DIRECTION ( 'NONE',  ( -3.491481338843133355E-15, 1.224646799147353207E-16, -1.000000000000000000 ) ) ;
#70 = CIRCLE ( 'NONE', #187, 2.900000000000001243 ) ;
#71 = DIRECTION ( 'NONE',  ( 0.0000000000000000000, 1.000000000000000000, 0.0000000000000000000 ) ) ;
#72 = PERSON_AND_ORGANIZATION_ROLE ( 'design_owner' ) ;
#73 = CARTESIAN_POINT ( 'NONE',  ( 6.083891551883384169E-15, -2.899999999999992806, 1.742495795179939133 ) ) ;
#74 = AXIS2_PLACEMENT_3D ( 'NONE', #116, #199, #97 ) ;
#75 = CARTESIAN_POINT ( 'NONE',  ( 2.304377683636468267E-13, -8.082668874372532400E-15, 66.00000000000000000 ) ) ;
#76 = COORDINATED_UNIVERSAL_TIME_OFFSET ( 1, 0, .AHEAD. ) ;
#77 = EDGE_LOOP ( 'NONE', ( #21, #103, #122, #19 ) ) ;
#78 = ORIENTED_EDGE ( 'NONE', *, *, #235, .T. ) ;
#79 = CC_DESIGN_PERSON_AND_ORGANIZATION_ASSIGNMENT ( #162, #310, ( #242 ) ) ;
#80 = AXIS2_PLACEMENT_3D ( 'NONE', #311, #134, #87 ) ;
#81 = DIRECTION ( 'NONE',  ( -2.382254525458723780E-15, -0.7071067811865453523, -0.7071067811865496822 ) ) ;
#82 = ORIENTED_EDGE ( 'NONE', *, *, #291, .F. ) ;
#83 = APPROVAL_DATE_TIME ( #4, #51 ) ;
#84 = APPROVAL_STATUS ( 'not_yet_approved' ) ;
#85 = DIRECTION ( 'NONE',  ( 0.0000000000000000000, 1.000000000000000000, 0.0000000000000000000 ) ) ;
#86 = CC_DESIGN_SECURITY_CLASSIFICATION ( #192, ( #242 ) ) ;
#87 = DIRECTION ( 'NONE',  ( 0.0000000000000000000, 1.000000000000000000, 0.0000000000000000000 ) ) ;
#88 = CALENDAR_DATE ( 2021, 3, 9 ) ;
#89 = EDGE_CURVE ( 'NONE', #133, #223, #31, .T. ) ;
#90 = AXIS2_PLACEMENT_3D ( 'NONE', #75, #30, #91 ) ;
#91 = DIRECTION ( 'NONE',  ( 0.0000000000000000000, 1.000000000000000000, 0.0000000000000000000 ) ) ;
#92 = ORIENTED_EDGE ( 'NONE', *, *, #141, .T. ) ;
#93 = CARTESIAN_POINT ( 'NONE',  ( 1.239991119310115526E-30, 2.899999999999994138, 3.551475717527317423E-16 ) ) ;
#94 = FACE_OUTER_BOUND ( 'NONE', #77, .T. ) ;
#95 =( NAMED_UNIT ( * ) SI_UNIT ( $, .STERADIAN. ) SOLID_ANGLE_UNIT ( ) );
#96 = ADVANCED_FACE ( 'NONE', ( #164 ), #315, .T. ) ;
#97 = DIRECTION ( 'NONE',  ( -5.312910191413077831E-31, -1.000000000000000000, -1.495451272393802994E-16 ) ) ;
#98 = DIRECTION ( 'NONE',  ( 1.000000000000000000, 0.0000000000000000000, 0.0000000000000000000 ) ) ;
#99 = CONICAL_SURFACE ( 'NONE', #210, 2.300000000000001155, 0.7853981633974453924 ) ;
#100 = CC_DESIGN_APPROVAL ( #51, ( #242 ) ) ;
#101 = DATE_AND_TIME ( #123, #25 ) ;
#102 = VERTEX_POINT ( 'NONE', #293 ) ;
#103 = ORIENTED_EDGE ( 'NONE', *, *, #209, .T. ) ;
#104 = VECTOR ( 'NONE', #234, 1000.000000000000114 ) ;
#105 = EDGE_LOOP ( 'NONE', ( #249, #159, #92 ) ) ;
#106 = APPROVAL ( #84, 'UNSPECIFIED' ) ;
#107 = DIRECTION ( 'NONE',  ( -3.491481338843133355E-15, 1.224646799147353207E-16, -1.000000000000000000 ) ) ;
#108 = EDGE_LOOP ( 'NONE', ( #46, #204, #82, #236 ) ) ;
#109 = CARTESIAN_POINT ( 'NONE',  ( 0.0000000000000000000, 0.0000000000000000000, 0.0000000000000000000 ) ) ;
#110 = CALENDAR_DATE ( 2021, 3, 9 ) ;
#111 = EDGE_CURVE ( 'NONE', #34, #270, #62, .T. ) ;
#112 = DIRECTION ( 'NONE',  ( -3.491481338843133355E-15, 1.224646799147353207E-16, -1.000000000000000000 ) ) ;
#113 = ADVANCED_FACE ( 'NONE', ( #11 ), #196, .T. ) ;
#114 = EDGE_LOOP ( 'NONE', ( #260, #38, #259 ) ) ;
#115 = EDGE_LOOP ( 'NONE', ( #208, #78 ) ) ;
#116 = CARTESIAN_POINT ( 'NONE',  ( 6.083891551883385747E-15, -2.133941898094834969E-16, 1.742495795179939577 ) ) ;
#117 = CC_DESIGN_APPROVAL ( #304, ( #192 ) ) ;
#118 = PRODUCT_DEFINITION_SHAPE ( 'NONE', 'NONE',  #130 ) ;
#119 = DIRECTION ( 'NONE',  ( -3.491481338843133355E-15, 1.224646799147353207E-16, -1.000000000000000000 ) ) ;
#120 = EDGE_CURVE ( 'NONE', #143, #133, #175, .T. ) ;
#121 = CARTESIAN_POINT ( 'NONE',  ( 7.332110811570580046E-14, 2.899999999999992806, 21.00000000000000000 ) ) ;
#122 = ORIENTED_EDGE ( 'NONE', *, *, #22, .F. ) ;
#123 = CALENDAR_DATE ( 2021, 3, 9 ) ;
#124 = EDGE_LOOP ( 'NONE', ( #214, #297, #178, #301 ) ) ;
#125 = AXIS2_PLACEMENT_3D ( 'NONE', #65, #228, #251 ) ;
#126 = CARTESIAN_POINT ( 'NONE',  ( 0.0000000000000000000, 0.0000000000000000000, 0.0000000000000000000 ) ) ;
#127 = CARTESIAN_POINT ( 'NONE',  ( 2.297087321297721766E-13, -2.300000000000009592, 66.00000000000000000 ) ) ;
#128 = DIRECTION ( 'NONE',  ( -3.491481338843133355E-15, 1.224646799147353207E-16, -1.000000000000000000 ) ) ;
#129 = VECTOR ( 'NONE', #329, 1000.000000000000000 ) ;
#130 = PRODUCT_DEFINITION ( 'UNKNOWN', '', #242, #132 ) ;
#131 = CARTESIAN_POINT ( 'NONE',  ( 2.283428795603408836E-13, -8.009190066423689102E-15, 65.40000000000000568 ) ) ;
#132 = DESIGN_CONTEXT ( 'detailed design', #33, 'design' ) ;
#133 = VERTEX_POINT ( 'NONE', #324 ) ;
#134 = DIRECTION ( 'NONE',  ( -3.491481338843133355E-15, 1.224646799147353207E-16, -1.000000000000000000 ) ) ;
#135 = DIRECTION ( 'NONE',  ( 3.491481338843133355E-15, -1.224646799147353207E-16, 1.000000000000000000 ) ) ;
#136 = AXIS2_PLACEMENT_3D ( 'NONE', #176, #12, #325 ) ;
#137 = PERSON_AND_ORGANIZATION ( #142, #16 ) ;
#138 = DIRECTION ( 'NONE',  ( -3.491481338843133355E-15, 1.224646799147353207E-16, -1.000000000000000000 ) ) ;
#139 = CARTESIAN_POINT ( 'NONE',  ( 2.304377683636468267E-13, 2.299999999999993161, 66.00000000000000000 ) ) ;
#140 = DIRECTION ( 'NONE',  ( 0.0000000000000000000, 1.000000000000000000, 0.0000000000000000000 ) ) ;
#141 = EDGE_CURVE ( 'NONE', #223, #133, #36, .T. ) ;
#142 = PERSON ( 'UNSPECIFIED', 'UNSPECIFIED', 'UNSPECIFIED', ('UNSPECIFIED'), ('UNSPECIFIED'), ('UNSPECIFIED') ) ;
#143 = VERTEX_POINT ( 'NONE', #121 ) ;
#144 = DIRECTION ( 'NONE',  ( 5.312910191413077831E-31, 1.000000000000000000, 1.495451272393802994E-16 ) ) ;
#145 = ORIENTED_EDGE ( 'NONE', *, *, #141, .F. ) ;
#146 = DIRECTION ( 'NONE',  ( -3.491481338843133355E-15, 1.224646799147353207E-16, -1.000000000000000000 ) ) ;
#147 = CC_DESIGN_PERSON_AND_ORGANIZATION_ASSIGNMENT ( #172, #39, ( #130 ) ) ;
#148 = VECTOR ( 'NONE', #193, 1000.000000000000000 ) ;
#149 = CONICAL_SURFACE ( 'NONE', #74, 2.899999999999992806, 1.029744258676649649 ) ;
#150 = CARTESIAN_POINT ( 'NONE',  ( 4.005764740554729758E-14, -2.899999999999998135, 21.00000000000000000 ) ) ;
#151 = CARTESIAN_POINT ( 'NONE',  ( 2.283428795603408836E-13, 2.899999999999993250, 65.40000000000000568 ) ) ;
#152 = DIRECTION ( 'NONE',  ( -3.491481338843133355E-15, 1.224646799147353207E-16, -1.000000000000000000 ) ) ;
#153 = ADVANCED_FACE ( 'NONE', ( #94 ), #173, .T. ) ;
#154 = AXIS2_PLACEMENT_3D ( 'NONE', #245, #337, #288 ) ;
#155 = CARTESIAN_POINT ( 'NONE',  ( 6.439039123636118623E-15, 2.899999999999992806, 1.742495795179940021 ) ) ;
#156 = AXIS2_PLACEMENT_3D ( 'NONE', #239, #135, #27 ) ;
#157 = VECTOR ( 'NONE', #81, 1000.000000000000000 ) ;
#158 = EDGE_LOOP ( 'NONE', ( #198, #212 ) ) ;
#159 = ORIENTED_EDGE ( 'NONE', *, *, #181, .T. ) ;
#160 = ORIENTED_EDGE ( 'NONE', *, *, #120, .T. ) ;
#161 = VERTEX_POINT ( 'NONE', #150 ) ;
#162 = PERSON_AND_ORGANIZATION ( #142, #16 ) ;
#163 = AXIS2_PLACEMENT_3D ( 'NONE', #7, #224, #191 ) ;
#164 = FACE_OUTER_BOUND ( 'NONE', #158, .T. ) ;
#165 = ADVANCED_FACE ( 'NONE', ( #271 ), #149, .T. ) ;
#166 = FACE_OUTER_BOUND ( 'NONE', #268, .T. ) ;
#167 = LOCAL_TIME ( 9, 21, 56.00000000000000000, #308 ) ;
#168 = EDGE_CURVE ( 'NONE', #161, #143, #215, .T. ) ;
#169 = DATE_AND_TIME ( #282, #320 ) ;
#170 = DIRECTION ( 'NONE',  ( 1.798245827342160317E-15, -0.8571673007021098911, 0.5150380749100582634 ) ) ;
#171 = PRODUCT ( '316', '316', '', ( #201 ) ) ;
#172 = PERSON_AND_ORGANIZATION ( #142, #16 ) ;
#173 = CYLINDRICAL_SURFACE ( 'NONE', #125, 2.899999999999998135 ) ;
#174 = CONICAL_SURFACE ( 'NONE', #154, 2.899999999999992806, 1.029744258676649649 ) ;
#175 = LINE ( 'NONE', #93, #148 ) ;
#176 = CARTESIAN_POINT ( 'NONE',  ( 7.332110811570580046E-14, -2.571758278209441661E-15, 21.00000000000000000 ) ) ;
#177 = CARTESIAN_POINT ( 'NONE',  ( 0.0000000000000000000, 0.0000000000000000000, 0.0000000000000000000 ) ) ;
#178 = ORIENTED_EDGE ( 'NONE', *, *, #89, .F. ) ;
#179 = LOCAL_TIME ( 9, 21, 56.00000000000000000, #312 ) ;
#180 = LINE ( 'NONE', #155, #286 ) ;
#181 = EDGE_CURVE ( 'NONE', #20, #223, #226, .T. ) ;
#182 = APPROVAL_ROLE ( '' ) ;
#183 = LINE ( 'NONE', #213, #157 ) ;
#184 = DATE_AND_TIME ( #110, #331 ) ;
#185 = FACE_OUTER_BOUND ( 'NONE', #114, .T. ) ;
#186 = AXIS2_PLACEMENT_3D ( 'NONE', #319, #40, #269 ) ;
#187 = AXIS2_PLACEMENT_3D ( 'NONE', #10, #119, #140 ) ;
#188 = SECURITY_CLASSIFICATION_LEVEL ( 'unclassified' ) ;
#189 = LINE ( 'NONE', #289, #266 ) ;
#190 = EDGE_CURVE ( 'NONE', #292, #34, #70, .T. ) ;
#191 = DIRECTION ( 'NONE',  ( -4.275831445896958607E-31, -1.000000000000000000, -1.224646799147353207E-16 ) ) ;
#192 = SECURITY_CLASSIFICATION ( '', '', #188 ) ;
#193 = DIRECTION ( 'NONE',  ( -3.491481338843133355E-15, 1.224646799147353207E-16, -1.000000000000000000 ) ) ;
#194 = ORIENTED_EDGE ( 'NONE', *, *, #205, .F. ) ;
#195 = APPROVAL_DATE_TIME ( #169, #106 ) ;
#196 = CYLINDRICAL_SURFACE ( 'NONE', #186, 2.899999999999994138 ) ;
#197 = CARTESIAN_POINT ( 'NONE',  ( 2.304377683636468267E-13, -8.082668874372532400E-15, 66.00000000000000000 ) ) ;
#198 = ORIENTED_EDGE ( 'NONE', *, *, #321, .F. ) ;
#199 = DIRECTION ( 'NONE',  ( 3.491481338843133355E-15, -1.224646799147353207E-16, 1.000000000000000000 ) ) ;
#200 = ORIENTED_EDGE ( 'NONE', *, *, #296, .F. ) ;
#201 = MECHANICAL_CONTEXT ( 'NONE', #14, 'mechanical' ) ;
#202 = AXIS2_PLACEMENT_3D ( 'NONE', #126, #207, #276 ) ;
#203 = VECTOR ( 'NONE', #170, 1000.000000000000000 ) ;
#204 = ORIENTED_EDGE ( 'NONE', *, *, #272, .T. ) ;
#205 = EDGE_CURVE ( 'NONE', #9, #303, #263, .T. ) ;
#206 = FACE_OUTER_BOUND ( 'NONE', #108, .T. ) ;
#207 = DIRECTION ( 'NONE',  ( -3.491481338843133355E-15, 1.224646799147353207E-16, -1.000000000000000000 ) ) ;
#208 = ORIENTED_EDGE ( 'NONE', *, *, #22, .T. ) ;
#209 = EDGE_CURVE ( 'NONE', #292, #102, #189, .T. ) ;
#210 = AXIS2_PLACEMENT_3D ( 'NONE', #219, #316, #85 ) ;
#211 = CIRCLE ( 'NONE', #248, 2.900000000000001243 ) ;
#212 = ORIENTED_EDGE ( 'NONE', *, *, #168, .F. ) ;
#213 = CARTESIAN_POINT ( 'NONE',  ( 2.307194371274506847E-13, -2.300000000000009592, 66.00000000000000000 ) ) ;
#214 = ORIENTED_EDGE ( 'NONE', *, *, #321, .T. ) ;
#215 = CIRCLE ( 'NONE', #233, 2.899999999999995470 ) ;
#216 = CC_DESIGN_DATE_AND_TIME_ASSIGNMENT ( #290, #218, ( #192 ) ) ;
#217 = DIRECTION ( 'NONE',  ( 4.275831445896958607E-31, 1.000000000000000000, 1.224646799147353207E-16 ) ) ;
#218 = DATE_TIME_ROLE ( 'classification_date' ) ;
#219 = CARTESIAN_POINT ( 'NONE',  ( 2.304377683636468267E-13, -8.082668874372532400E-15, 66.00000000000000000 ) ) ;
#220 = CALENDAR_DATE ( 2021, 3, 9 ) ;
#221 = ADVANCED_FACE ( 'NONE', ( #240 ), #237, .F. ) ;
#222 = APPROVAL_ROLE ( '' ) ;
#223 = VERTEX_POINT ( 'NONE', #73 ) ;
#224 = DIRECTION ( 'NONE',  ( 3.491481338843133355E-15, -1.224646799147353207E-16, 1.000000000000000000 ) ) ;
#225 = SHAPE_DEFINITION_REPRESENTATION ( #118, #284 ) ;
#226 = LINE ( 'NONE', #295, #203 ) ;
#227 = DIRECTION ( 'NONE',  ( -3.491481338843133355E-15, 1.224646799147353207E-16, -1.000000000000000000 ) ) ;
#228 = DIRECTION ( 'NONE',  ( -3.491481338843133355E-15, 1.224646799147353207E-16, -1.000000000000000000 ) ) ;
#229 = EDGE_LOOP ( 'NONE', ( #194, #281 ) ) ;
#230 = CARTESIAN_POINT ( 'NONE',  ( 3.551475717527304604E-16, -2.899999999999994138, -3.551475717527329256E-16 ) ) ;
#231 = EDGE_LOOP ( 'NONE', ( #6, #63, #275, #299 ) ) ;
#232 = AXIS2_PLACEMENT_3D ( 'NONE', #35, #227, #322 ) ;
#233 = AXIS2_PLACEMENT_3D ( 'NONE', #300, #146, #71 ) ;
#234 = DIRECTION ( 'NONE',  ( -2.468850131082271655E-15, 0.7071067811865455743, -0.7071067811865493491 ) ) ;
#235 = EDGE_CURVE ( 'NONE', #102, #270, #305, .T. ) ;
#236 = ORIENTED_EDGE ( 'NONE', *, *, #267, .F. ) ;
#237 = PLANE ( 'NONE',  #59 ) ;
#238 = CIRCLE ( 'NONE', #309, 2.899999999999995470 ) ;
#239 = CARTESIAN_POINT ( 'NONE',  ( 7.332110811570580046E-14, 2.174651684859686415E-32, 21.00000000000000000 ) ) ;
#240 = FACE_OUTER_BOUND ( 'NONE', #229, .T. ) ;
#241 = DIRECTION ( 'NONE',  ( -3.491481338843133355E-15, 1.224646799147353207E-16, -1.000000000000000000 ) ) ;
#242 = PRODUCT_DEFINITION_FORMATION_WITH_SPECIFIED_SOURCE ( 'ANY', '', #171, .NOT_KNOWN. ) ;
#243 = PERSON_AND_ORGANIZATION_ROLE ( 'design_supplier' ) ;
#244 = CARTESIAN_POINT ( 'NONE',  ( 0.0000000000000000000, 0.0000000000000000000, 0.0000000000000000000 ) ) ;
#245 = CARTESIAN_POINT ( 'NONE',  ( 6.083891551883385747E-15, -2.133941898094834969E-16, 1.742495795179939577 ) ) ;
#246 = PRODUCT_RELATED_PRODUCT_CATEGORY ( 'detail', '', ( #171 ) ) ;
#247 = ORIENTED_EDGE ( 'NONE', *, *, #168, .T. ) ;
#248 = AXIS2_PLACEMENT_3D ( 'NONE', #131, #152, #15 ) ;
#249 = ORIENTED_EDGE ( 'NONE', *, *, #307, .F. ) ;
#250 = COORDINATED_UNIVERSAL_TIME_OFFSET ( 1, 0, .AHEAD. ) ;
#251 = DIRECTION ( 'NONE',  ( 4.275831445896958607E-31, 1.000000000000000000, 1.224646799147353207E-16 ) ) ;
#252 = CC_DESIGN_PERSON_AND_ORGANIZATION_ASSIGNMENT ( #253, #72, ( #171 ) ) ;
#253 = PERSON_AND_ORGANIZATION ( #142, #16 ) ;
#254 = CYLINDRICAL_SURFACE ( 'NONE', #202, 2.899999999999994138 ) ;
#255 = AXIS2_PLACEMENT_3D ( 'NONE', #244, #128, #217 ) ;
#256 = ADVANCED_FACE ( 'NONE', ( #166 ), #32, .T. ) ;
#257 = DIRECTION ( 'NONE',  ( 1.903218546456022717E-15, 0.8571673007021097801, 0.5150380749100585964 ) ) ;
#258 = CARTESIAN_POINT ( 'NONE',  ( 1.511871414097759187E-13, -2.900000000000008793, 65.40000000000000568 ) ) ;
#259 = ORIENTED_EDGE ( 'NONE', *, *, #89, .T. ) ;
#260 = ORIENTED_EDGE ( 'NONE', *, *, #181, .F. ) ;
#261 = DIRECTION ( 'NONE',  ( -3.491481338843133355E-15, 1.224646799147353207E-16, -1.000000000000000000 ) ) ;
#262 = FACE_OUTER_BOUND ( 'NONE', #115, .T. ) ;
#263 = CIRCLE ( 'NONE', #80, 2.300000000000001155 ) ;
#264 = CARTESIAN_POINT ( 'NONE',  ( 6.083891551883385747E-15, -2.133941898094834969E-16, 1.742495795179939577 ) ) ;
#265 =( LENGTH_UNIT ( ) NAMED_UNIT ( * ) SI_UNIT ( .MILLI., .METRE. ) );
#266 = VECTOR ( 'NONE', #107, 1000.000000000000000 ) ;
#267 = EDGE_CURVE ( 'NONE', #9, #34, #278, .T. ) ;
#268 = EDGE_LOOP ( 'NONE', ( #306, #50, #326, #317 ) ) ;
#269 = DIRECTION ( 'NONE',  ( 4.275831445896958607E-31, 1.000000000000000000, 1.224646799147353207E-16 ) ) ;
#270 = VERTEX_POINT ( 'NONE', #334 ) ;
#271 = FACE_OUTER_BOUND ( 'NONE', #105, .T. ) ;
#272 = EDGE_CURVE ( 'NONE', #303, #292, #183, .T. ) ;
#273 = DIRECTION ( 'NONE',  ( -3.491481338843133355E-15, 1.224646799147353207E-16, -1.000000000000000000 ) ) ;
#274 = DIRECTION ( 'NONE',  ( 0.0000000000000000000, 0.0000000000000000000, 1.000000000000000000 ) ) ;
#275 = ORIENTED_EDGE ( 'NONE', *, *, #267, .T. ) ;
#276 = DIRECTION ( 'NONE',  ( 4.275831445896958607E-31, 1.000000000000000000, 1.224646799147353207E-16 ) ) ;
#277 = AXIS2_PLACEMENT_3D ( 'NONE', #177, #274, #98 ) ;
#278 = LINE ( 'NONE', #332, #104 ) ;
#279 = MANIFOLD_SOLID_BREP ( 'Corps-Déplacer/Copier1[1]', #54 ) ;
#280 = APPROVAL_PERSON_ORGANIZATION ( #314, #304, #68 ) ;
#281 = ORIENTED_EDGE ( 'NONE', *, *, #313, .F. ) ;
#282 = CALENDAR_DATE ( 2021, 3, 9 ) ;
#283 = DATE_TIME_ROLE ( 'creation_date' ) ;
#284 = ADVANCED_BREP_SHAPE_REPRESENTATION ( '316', ( #279, #53, #277 ), #55 ) ;
#285 = VECTOR ( 'NONE', #69, 1000.000000000000000 ) ;
#286 = VECTOR ( 'NONE', #257, 999.9999999999998863 ) ;
#287 = PERSON_AND_ORGANIZATION ( #142, #16 ) ;
#288 = DIRECTION ( 'NONE',  ( -5.312910191413077831E-31, -1.000000000000000000, -1.495451272393802994E-16 ) ) ;
#289 = CARTESIAN_POINT ( 'NONE',  ( 3.551475717527309534E-16, -2.899999999999998135, -3.551475717527334186E-16 ) ) ;
#290 = DATE_AND_TIME ( #88, #179 ) ;
#291 = EDGE_CURVE ( 'NONE', #34, #292, #211, .T. ) ;
#292 = VERTEX_POINT ( 'NONE', #258 ) ;
#293 = CARTESIAN_POINT ( 'NONE',  ( 1.511871414097760449E-13, -2.899999999999998135, 21.00000000000000000 ) ) ;
#294 = CARTESIAN_POINT ( 'NONE',  ( 7.332110811570580046E-14, -2.571758278209441661E-15, 21.00000000000000000 ) ) ;
#295 = CARTESIAN_POINT ( 'NONE',  ( 6.083891551883384169E-15, -2.899999999999992806, 1.742495795179939133 ) ) ;
#296 = EDGE_CURVE ( 'NONE', #161, #223, #17, .T. ) ;
#297 = ORIENTED_EDGE ( 'NONE', *, *, #296, .T. ) ;
#298 = CARTESIAN_POINT ( 'NONE',  ( 1.239991119310117103E-30, 2.899999999999998135, 3.551475717527322353E-16 ) ) ;
#299 = ORIENTED_EDGE ( 'NONE', *, *, #190, .F. ) ;
#300 = CARTESIAN_POINT ( 'NONE',  ( 7.332110811570580046E-14, -2.571758278209441661E-15, 21.00000000000000000 ) ) ;
#301 = ORIENTED_EDGE ( 'NONE', *, *, #120, .F. ) ;
#302 = APPLICATION_PROTOCOL_DEFINITION ( 'international standard', 'config_control_design', 1994, #33 ) ;
#303 = VERTEX_POINT ( 'NONE', #127 ) ;
#304 = APPROVAL ( #323, 'UNSPECIFIED' ) ;
#305 = CIRCLE ( 'NONE', #49, 2.899999999999995470 ) ;
#306 = ORIENTED_EDGE ( 'NONE', *, *, #209, .F. ) ;
#307 = EDGE_CURVE ( 'NONE', #20, #133, #180, .T. ) ;
#308 = COORDINATED_UNIVERSAL_TIME_OFFSET ( 1, 0, .AHEAD. ) ;
#309 = AXIS2_PLACEMENT_3D ( 'NONE', #294, #138, #29 ) ;
#310 = PERSON_AND_ORGANIZATION_ROLE ( 'creator' ) ;
#311 = CARTESIAN_POINT ( 'NONE',  ( 2.304377683636468267E-13, -8.082668874372532400E-15, 66.00000000000000000 ) ) ;
#312 = COORDINATED_UNIVERSAL_TIME_OFFSET ( 1, 0, .AHEAD. ) ;
#313 = EDGE_CURVE ( 'NONE', #303, #9, #24, .T. ) ;
#314 = PERSON_AND_ORGANIZATION ( #142, #16 ) ;
#315 = PLANE ( 'NONE',  #163 ) ;
#316 = DIRECTION ( 'NONE',  ( -3.491481338843133355E-15, 1.224646799147353207E-16, -1.000000000000000000 ) ) ;
#317 = ORIENTED_EDGE ( 'NONE', *, *, #235, .F. ) ;
#318 = APPROVAL_DATE_TIME ( #101, #304 ) ;
#319 = CARTESIAN_POINT ( 'NONE',  ( 0.0000000000000000000, 0.0000000000000000000, 0.0000000000000000000 ) ) ;
#320 = LOCAL_TIME ( 9, 21, 56.00000000000000000, #76 ) ;
#321 = EDGE_CURVE ( 'NONE', #143, #161, #238, .T. ) ;
#322 = DIRECTION ( 'NONE',  ( 5.312910191413077831E-31, 1.000000000000000000, 1.495451272393802994E-16 ) ) ;
#323 = APPROVAL_STATUS ( 'not_yet_approved' ) ;
#324 = CARTESIAN_POINT ( 'NONE',  ( 6.439039123636118623E-15, 2.899999999999992806, 1.742495795179940021 ) ) ;
#325 = DIRECTION ( 'NONE',  ( 0.0000000000000000000, 1.000000000000000000, 0.0000000000000000000 ) ) ;
#326 = ORIENTED_EDGE ( 'NONE', *, *, #111, .T. ) ;
#327 = AXIS2_PLACEMENT_3D ( 'NONE', #264, #241, #144 ) ;
#328 = CC_DESIGN_PERSON_AND_ORGANIZATION_ASSIGNMENT ( #26, #243, ( #242 ) ) ;
#329 = DIRECTION ( 'NONE',  ( -3.491481338843133355E-15, 1.224646799147353207E-16, -1.000000000000000000 ) ) ;
#330 = AXIS2_PLACEMENT_3D ( 'NONE', #197, #273, #42 ) ;
#331 = LOCAL_TIME ( 9, 21, 56.00000000000000000, #250 ) ;
#332 = CARTESIAN_POINT ( 'NONE',  ( 2.304377683636468267E-13, 2.299999999999993161, 66.00000000000000000 ) ) ;
#333 = ADVANCED_FACE ( 'NONE', ( #185 ), #174, .T. ) ;
#334 = CARTESIAN_POINT ( 'NONE',  ( 7.332110811570580046E-14, 2.899999999999992806, 21.00000000000000000 ) ) ;
#335 = APPROVAL_PERSON_ORGANIZATION ( #44, #106, #182 ) ;
#336 = DIRECTION ( 'NONE',  ( 4.275831445896958607E-31, 1.000000000000000000, 1.224646799147353207E-16 ) ) ;
#337 = DIRECTION ( 'NONE',  ( 3.491481338843133355E-15, -1.224646799147353207E-16, 1.000000000000000000 ) ) ;
ENDSEC;
END-ISO-10303-21;
