ISO-10303-21;
HEADER;
FILE_DESCRIPTION (( 'STEP AP203' ),
    '1' );
FILE_NAME ('31590.step',
    '2021-10-15T13:34:31',
    ( '' ),
    ( '' ),
    'SwSTEP 2.0',
    'SolidWorks 2019',
    '' );
FILE_SCHEMA (( 'CONFIG_CONTROL_DESIGN' ));
ENDSEC;

DATA;
#1 = CALENDAR_DATE ( 2021, 15, 10 ) ;
#2 = SECURITY_CLASSIFICATION_LEVEL ( 'unclassified' ) ;
#3 = DIRECTION ( 'NONE',  ( -3.491481338843133355E-15, 1.224646799147353207E-16, -1.000000000000000000 ) ) ;
#4 = CC_DESIGN_PERSON_AND_ORGANIZATION_ASSIGNMENT ( #49, #139, ( #91 ) ) ;
#5 = CARTESIAN_POINT ( 'NONE',  ( 9.077851480992146724E-14, 1.837205733760769001E-32, 26.00000000000000000 ) ) ;
#6 = DATE_TIME_ROLE ( 'creation_date' ) ;
#7 = CLOSED_SHELL ( 'NONE', ( #99, #64, #93, #80 ) ) ;
#8 = DIRECTION ( 'NONE',  ( -4.275831445896958607E-31, -1.000000000000000000, -1.224646799147353207E-16 ) ) ;
#9 = AXIS2_PLACEMENT_3D ( 'NONE', #197, #153, #8 ) ;
#10 = DIRECTION ( 'NONE',  ( -3.491481338843133355E-15, 1.224646799147353207E-16, -1.000000000000000000 ) ) ;
#11 = EDGE_CURVE ( 'NONE', #125, #125, #130, .T. ) ;
#12 = AXIS2_PLACEMENT_3D ( 'NONE', #5, #89, #135 ) ;
#13 = ORIENTED_EDGE ( 'NONE', *, *, #11, .T. ) ;
#14 = PERSON ( 'UNSPECIFIED', 'UNSPECIFIED', 'UNSPECIFIED', ('UNSPECIFIED'), ('UNSPECIFIED'), ('UNSPECIFIED') ) ;
#15 = PRODUCT_DEFINITION ( 'UNKNOWN', '', #160, #186 ) ;
#16 = PERSON_AND_ORGANIZATION ( #14, #126 ) ;
#17 = CARTESIAN_POINT ( 'NONE',  ( 2.147261023388527077E-13, -7.531577814756222656E-15, 61.50000000000000000 ) ) ;
#18 = CIRCLE ( 'NONE', #100, 2.450000000000001954 ) ;
#19 = PERSON_AND_ORGANIZATION ( #14, #126 ) ;
#20 = VERTEX_POINT ( 'NONE', #58 ) ;
#21 = CC_DESIGN_DATE_AND_TIME_ASSIGNMENT ( #136, #52, ( #157 ) ) ;
#22 = APPROVAL_STATUS ( 'not_yet_approved' ) ;
#23 = VERTEX_POINT ( 'NONE', #73 ) ;
#24 = APPROVAL_DATE_TIME ( #121, #189 ) ;
#25 = DIRECTION ( 'NONE',  ( 4.275831445896958607E-31, 1.000000000000000000, 1.224646799147353207E-16 ) ) ;
#26 = CALENDAR_DATE ( 2021, 15, 10 ) ;
#27 = PLANE ( 'NONE',  #12 ) ;
#28 = EDGE_LOOP ( 'NONE', ( #78 ) ) ;
#29 = EDGE_LOOP ( 'NONE', ( #112 ) ) ;
#30 = EDGE_LOOP ( 'NONE', ( #33 ) ) ;
#31 = AXIS2_PLACEMENT_3D ( 'NONE', #85, #167, #140 ) ;
#32 = CC_DESIGN_PERSON_AND_ORGANIZATION_ASSIGNMENT ( #168, #165, ( #160 ) ) ;
#33 = ORIENTED_EDGE ( 'NONE', *, *, #54, .F. ) ;
#34 = CIRCLE ( 'NONE', #156, 2.449999999999997957 ) ;
#35 = AXIS2_PLACEMENT_3D ( 'NONE', #67, #36, #124 ) ;
#36 = DIRECTION ( 'NONE',  ( 0.0000000000000000000, 0.0000000000000000000, 1.000000000000000000 ) ) ;
#37 = CARTESIAN_POINT ( 'NONE',  ( 3.113448438045316293E-15, -1.092050706828603502E-16, 0.8917270739522055178 ) ) ;
#38 = LOCAL_TIME ( 15, 34, 31.00000000000000000, #55 ) ;
#39 = APPLICATION_PROTOCOL_DEFINITION ( 'international standard', 'config_control_design', 1994, #201 ) ;
#40 = CARTESIAN_POINT ( 'NONE',  ( 2.164718430082742680E-13, 1.462265788095301588E-32, 62.00000000000000000 ) ) ;
#41 = APPLICATION_PROTOCOL_DEFINITION ( 'international standard', 'config_control_design', 1994, #115 ) ;
#42 = CARTESIAN_POINT ( 'NONE',  ( 9.077851480992146724E-14, -3.184081677783118191E-15, 26.00000000000000000 ) ) ;
#43 = LOCAL_TIME ( 15, 34, 31.00000000000000000, #133 ) ;
#44 = EDGE_CURVE ( 'NONE', #164, #164, #34, .T. ) ;
#45 = APPROVAL_PERSON_ORGANIZATION ( #16, #66, #110 ) ;
#46 = CC_DESIGN_APPROVAL ( #66, ( #160 ) ) ;
#47 = ADVANCED_FACE ( 'NONE', ( #192, #171 ), #82, .T. ) ;
#48 = CC_DESIGN_SECURITY_CLASSIFICATION ( #157, ( #160 ) ) ;
#49 = PERSON_AND_ORGANIZATION ( #14, #126 ) ;
#50 = PERSON_AND_ORGANIZATION ( #14, #126 ) ;
#51 = CARTESIAN_POINT ( 'NONE',  ( 9.077851480992146724E-14, -3.184081677783118191E-15, 26.00000000000000000 ) ) ;
#52 = DATE_TIME_ROLE ( 'classification_date' ) ;
#53 = CYLINDRICAL_SURFACE ( 'NONE', #114, 2.449999999999999734 ) ;
#54 = EDGE_CURVE ( 'NONE', #23, #23, #173, .T. ) ;
#55 = COORDINATED_UNIVERSAL_TIME_OFFSET ( 1, 0, .AHEAD. ) ;
#56 = FACE_OUTER_BOUND ( 'NONE', #145, .T. ) ;
#57 = PERSON_AND_ORGANIZATION ( #14, #126 ) ;
#58 = CARTESIAN_POINT ( 'NONE',  ( 2.147261023388527077E-13, 2.449999999999994849, 61.50000000000000000 ) ) ;
#59 = DIRECTION ( 'NONE',  ( 0.0000000000000000000, 1.000000000000000000, 0.0000000000000000000 ) ) ;
#60 = EDGE_LOOP ( 'NONE', ( #92 ) ) ;
#61 = CC_DESIGN_PERSON_AND_ORGANIZATION_ASSIGNMENT ( #19, #151, ( #160 ) ) ;
#62 = ADVANCED_FACE ( 'NONE', ( #195 ), #79, .T. ) ;
#63 = UNCERTAINTY_MEASURE_WITH_UNIT (LENGTH_MEASURE( 1.000000000000000082E-05 ), #87, 'distance_accuracy_value', 'NONE');
#64 = ADVANCED_FACE ( 'NONE', ( #138, #76 ), #53, .T. ) ;
#65 = CC_DESIGN_APPROVAL ( #189, ( #157 ) ) ;
#66 = APPROVAL ( #196, 'UNSPECIFIED' ) ;
#67 = CARTESIAN_POINT ( 'NONE',  ( 0.0000000000000000000, 0.0000000000000000000, 0.0000000000000000000 ) ) ;
#68 = CALENDAR_DATE ( 2021, 15, 10 ) ;
#69 = DIRECTION ( 'NONE',  ( 0.0000000000000000000, 1.000000000000000000, 0.0000000000000000000 ) ) ;
#70 = COORDINATED_UNIVERSAL_TIME_OFFSET ( 1, 0, .AHEAD. ) ;
#71 = VERTEX_POINT ( 'NONE', #120 ) ;
#72 = MECHANICAL_CONTEXT ( 'NONE', #201, 'mechanical' ) ;
#73 = CARTESIAN_POINT ( 'NONE',  ( 9.077851480992146724E-14, 2.449999999999994849, 26.00000000000000000 ) ) ;
#74 = CC_DESIGN_APPROVAL ( #88, ( #15 ) ) ;
#75 = CARTESIAN_POINT ( 'NONE',  ( 9.077851480992146724E-14, 2.449999999999994849, 26.00000000000000000 ) ) ;
#76 = FACE_OUTER_BOUND ( 'NONE', #28, .T. ) ;
#77 = EDGE_LOOP ( 'NONE', ( #97 ) ) ;
#78 = ORIENTED_EDGE ( 'NONE', *, *, #129, .T. ) ;
#79 = CONICAL_SURFACE ( 'NONE', #94, 2.449999999999994849, 1.221730476396026610 ) ;
#80 = ADVANCED_FACE ( 'NONE', ( #56 ), #111, .F. ) ;
#81 =( NAMED_UNIT ( * ) SI_UNIT ( $, .STERADIAN. ) SOLID_ANGLE_UNIT ( ) );
#82 = CYLINDRICAL_SURFACE ( 'NONE', #83, 2.449999999999996625 ) ;
#83 = AXIS2_PLACEMENT_3D ( 'NONE', #104, #3, #25 ) ;
#84 = APPROVAL_ROLE ( '' ) ;
#85 = CARTESIAN_POINT ( 'NONE',  ( 2.164718430082742680E-13, -7.592810154713590230E-15, 62.00000000000000000 ) ) ;
#86 = APPROVAL_ROLE ( '' ) ;
#87 =( LENGTH_UNIT ( ) NAMED_UNIT ( * ) SI_UNIT ( .MILLI., .METRE. ) );
#88 = APPROVAL ( #119, 'UNSPECIFIED' ) ;
#89 = DIRECTION ( 'NONE',  ( 3.491481338843133355E-15, -1.224646799147353207E-16, 1.000000000000000000 ) ) ;
#90 = DIRECTION ( 'NONE',  ( -3.491481338843133355E-15, 1.224646799147353207E-16, -1.000000000000000000 ) ) ;
#91 = PRODUCT ( '31590', '31590', '', ( #72 ) ) ;
#92 = ORIENTED_EDGE ( 'NONE', *, *, #175, .T. ) ;
#93 = ADVANCED_FACE ( 'NONE', ( #172, #142 ), #202, .T. ) ;
#94 = AXIS2_PLACEMENT_3D ( 'NONE', #106, #198, #141 ) ;
#95 = EDGE_LOOP ( 'NONE', ( #13 ) ) ;
#96 = DIRECTION ( 'NONE',  ( 0.0000000000000000000, 1.000000000000000000, 0.0000000000000000000 ) ) ;
#97 = ORIENTED_EDGE ( 'NONE', *, *, #44, .T. ) ;
#98 = LOCAL_TIME ( 15, 34, 31.00000000000000000, #116 ) ;
#99 = ADVANCED_FACE ( 'NONE', ( #177 ), #27, .F. ) ;
#100 = AXIS2_PLACEMENT_3D ( 'NONE', #17, #158, #59 ) ;
#101 =( NAMED_UNIT ( * ) PLANE_ANGLE_UNIT ( ) SI_UNIT ( $, .RADIAN. ) );
#102 = CARTESIAN_POINT ( 'NONE',  ( 2.164718430082742680E-13, 1.949999999999994627, 62.00000000000000000 ) ) ;
#103 = DATE_AND_TIME ( #26, #131 ) ;
#104 = CARTESIAN_POINT ( 'NONE',  ( 0.0000000000000000000, 0.0000000000000000000, 0.0000000000000000000 ) ) ;
#105 = DATE_AND_TIME ( #1, #98 ) ;
#106 = CARTESIAN_POINT ( 'NONE',  ( 3.113448438045316293E-15, -1.092050706828603502E-16, 0.8917270739522055178 ) ) ;
#107 = CC_DESIGN_PERSON_AND_ORGANIZATION_ASSIGNMENT ( #203, #191, ( #157 ) ) ;
#108 = CALENDAR_DATE ( 2021, 15, 10 ) ;
#109 = DIRECTION ( 'NONE',  ( 0.0000000000000000000, 1.000000000000000000, 0.0000000000000000000 ) ) ;
#110 = APPROVAL_ROLE ( '' ) ;
#111 = PLANE ( 'NONE',  #190 ) ;
#112 = ORIENTED_EDGE ( 'NONE', *, *, #44, .F. ) ;
#113 = EDGE_LOOP ( 'NONE', ( #174 ) ) ;
#114 = AXIS2_PLACEMENT_3D ( 'NONE', #152, #169, #183 ) ;
#115 = APPLICATION_CONTEXT ( 'configuration controlled 3d designs of mechanical parts and assemblies' ) ;
#116 = COORDINATED_UNIVERSAL_TIME_OFFSET ( 1, 0, .AHEAD. ) ;
#117 = APPROVAL_DATE_TIME ( #134, #66 ) ;
#118 = DIRECTION ( 'NONE',  ( -3.491481338843133355E-15, 1.224646799147353207E-16, -1.000000000000000000 ) ) ;
#119 = APPROVAL_STATUS ( 'not_yet_approved' ) ;
#120 = CARTESIAN_POINT ( 'NONE',  ( 3.113448438045317477E-15, 2.449999999999994849, 0.8917270739522058509 ) ) ;
#121 = DATE_AND_TIME ( #170, #38 ) ;
#122 = DIRECTION ( 'NONE',  ( 4.716563129111608088E-31, 1.000000000000000000, 1.327594496921028675E-16 ) ) ;
#123 = PRODUCT_DEFINITION_SHAPE ( 'NONE', 'NONE',  #15 ) ;
#124 = DIRECTION ( 'NONE',  ( 1.000000000000000000, 0.0000000000000000000, 0.0000000000000000000 ) ) ;
#125 = VERTEX_POINT ( 'NONE', #102 ) ;
#126 = ORGANIZATION ( 'UNSPECIFIED', 'UNSPECIFIED', '' ) ;
#127 = EDGE_LOOP ( 'NONE', ( #162 ) ) ;
#128 = ORIENTED_EDGE ( 'NONE', *, *, #54, .T. ) ;
#129 = EDGE_CURVE ( 'NONE', #20, #20, #18, .T. ) ;
#130 = CIRCLE ( 'NONE', #149, 1.950000000000002398 ) ;
#131 = LOCAL_TIME ( 15, 34, 31.00000000000000000, #179 ) ;
#132 = CIRCLE ( 'NONE', #185, 2.449999999999994849 ) ;
#133 = COORDINATED_UNIVERSAL_TIME_OFFSET ( 1, 0, .AHEAD. ) ;
#134 = DATE_AND_TIME ( #68, #43 ) ;
#135 = DIRECTION ( 'NONE',  ( -4.275831445896958607E-31, -1.000000000000000000, -1.224646799147353207E-16 ) ) ;
#136 = DATE_AND_TIME ( #108, #176 ) ;
#137 = CC_DESIGN_PERSON_AND_ORGANIZATION_ASSIGNMENT ( #50, #178, ( #15 ) ) ;
#138 = FACE_OUTER_BOUND ( 'NONE', #30, .T. ) ;
#139 = PERSON_AND_ORGANIZATION_ROLE ( 'design_owner' ) ;
#140 = DIRECTION ( 'NONE',  ( 0.0000000000000000000, 1.000000000000000000, 0.0000000000000000000 ) ) ;
#141 = DIRECTION ( 'NONE',  ( -4.716563129111608088E-31, -1.000000000000000000, -1.327594496921028675E-16 ) ) ;
#142 = FACE_BOUND ( 'NONE', #95, .T. ) ;
#143 = ORIENTED_EDGE ( 'NONE', *, *, #11, .F. ) ;
#144 = APPROVAL_PERSON_ORGANIZATION ( #194, #189, #86 ) ;
#145 = EDGE_LOOP ( 'NONE', ( #143 ) ) ;
#146 = EDGE_LOOP ( 'NONE', ( #128 ) ) ;
#147 = CC_DESIGN_DATE_AND_TIME_ASSIGNMENT ( #103, #6, ( #15 ) ) ;
#148 = ADVANCED_BREP_SHAPE_REPRESENTATION ( '31590', ( #166, #163, #35 ), #200 ) ;
#149 = AXIS2_PLACEMENT_3D ( 'NONE', #159, #10, #96 ) ;
#150 = DIRECTION ( 'NONE',  ( -3.491481338843133355E-15, 1.224646799147353207E-16, -1.000000000000000000 ) ) ;
#151 = PERSON_AND_ORGANIZATION_ROLE ( 'design_supplier' ) ;
#152 = CARTESIAN_POINT ( 'NONE',  ( 0.0000000000000000000, 0.0000000000000000000, 0.0000000000000000000 ) ) ;
#153 = DIRECTION ( 'NONE',  ( 3.491481338843133355E-15, -1.224646799147353207E-16, 1.000000000000000000 ) ) ;
#154 = SHAPE_DEFINITION_REPRESENTATION ( #123, #148 ) ;
#155 = DIRECTION ( 'NONE',  ( -3.491481338843133355E-15, 1.224646799147353207E-16, -1.000000000000000000 ) ) ;
#156 = AXIS2_PLACEMENT_3D ( 'NONE', #51, #118, #69 ) ;
#157 = SECURITY_CLASSIFICATION ( '', '', #2 ) ;
#158 = DIRECTION ( 'NONE',  ( -3.491481338843133355E-15, 1.224646799147353207E-16, -1.000000000000000000 ) ) ;
#159 = CARTESIAN_POINT ( 'NONE',  ( 2.164718430082742680E-13, -7.592810154713590230E-15, 62.00000000000000000 ) ) ;
#160 = PRODUCT_DEFINITION_FORMATION_WITH_SPECIFIED_SOURCE ( 'ANY', '', #91, .NOT_KNOWN. ) ;
#161 = PRODUCT_RELATED_PRODUCT_CATEGORY ( 'detail', '', ( #91 ) ) ;
#162 = ORIENTED_EDGE ( 'NONE', *, *, #129, .F. ) ;
#163 = MANIFOLD_SOLID_BREP ( 'Corps-Déplacer/Copier1[2]', #187 ) ;
#164 = VERTEX_POINT ( 'NONE', #75 ) ;
#165 = PERSON_AND_ORGANIZATION_ROLE ( 'creator' ) ;
#166 = MANIFOLD_SOLID_BREP ( 'Corps-Déplacer/Copier1[1]', #7 ) ;
#167 = DIRECTION ( 'NONE',  ( -3.491481338843133355E-15, 1.224646799147353207E-16, -1.000000000000000000 ) ) ;
#168 = PERSON_AND_ORGANIZATION ( #14, #126 ) ;
#169 = DIRECTION ( 'NONE',  ( -3.491481338843133355E-15, 1.224646799147353207E-16, -1.000000000000000000 ) ) ;
#170 = CALENDAR_DATE ( 2021, 15, 10 ) ;
#171 = FACE_OUTER_BOUND ( 'NONE', #77, .T. ) ;
#172 = FACE_OUTER_BOUND ( 'NONE', #127, .T. ) ;
#173 = CIRCLE ( 'NONE', #199, 2.449999999999997957 ) ;
#174 = ORIENTED_EDGE ( 'NONE', *, *, #175, .F. ) ;
#175 = EDGE_CURVE ( 'NONE', #71, #71, #132, .T. ) ;
#176 = LOCAL_TIME ( 15, 34, 31.00000000000000000, #70 ) ;
#177 = FACE_OUTER_BOUND ( 'NONE', #146, .T. ) ;
#178 = PERSON_AND_ORGANIZATION_ROLE ( 'creator' ) ;
#179 = COORDINATED_UNIVERSAL_TIME_OFFSET ( 1, 0, .AHEAD. ) ;
#180 = FACE_OUTER_BOUND ( 'NONE', #29, .T. ) ;
#181 = ADVANCED_FACE ( 'NONE', ( #180 ), #193, .T. ) ;
#182 = APPROVAL_DATE_TIME ( #105, #88 ) ;
#183 = DIRECTION ( 'NONE',  ( 4.275831445896958607E-31, 1.000000000000000000, 1.224646799147353454E-16 ) ) ;
#184 = DIRECTION ( 'NONE',  ( 4.275831445896958607E-31, 1.000000000000000000, 1.224646799147353207E-16 ) ) ;
#185 = AXIS2_PLACEMENT_3D ( 'NONE', #37, #155, #122 ) ;
#186 = DESIGN_CONTEXT ( 'detailed design', #115, 'design' ) ;
#187 = CLOSED_SHELL ( 'NONE', ( #62, #47, #181 ) ) ;
#188 = APPROVAL_PERSON_ORGANIZATION ( #57, #88, #84 ) ;
#189 = APPROVAL ( #22, 'UNSPECIFIED' ) ;
#190 = AXIS2_PLACEMENT_3D ( 'NONE', #40, #90, #184 ) ;
#191 = PERSON_AND_ORGANIZATION_ROLE ( 'classification_officer' ) ;
#192 = FACE_OUTER_BOUND ( 'NONE', #113, .T. ) ;
#193 = PLANE ( 'NONE',  #9 ) ;
#194 = PERSON_AND_ORGANIZATION ( #14, #126 ) ;
#195 = FACE_OUTER_BOUND ( 'NONE', #60, .T. ) ;
#196 = APPROVAL_STATUS ( 'not_yet_approved' ) ;
#197 = CARTESIAN_POINT ( 'NONE',  ( 9.077851480992146724E-14, 1.837205733760769001E-32, 26.00000000000000000 ) ) ;
#198 = DIRECTION ( 'NONE',  ( 3.491481338843133355E-15, -1.224646799147353207E-16, 1.000000000000000000 ) ) ;
#199 = AXIS2_PLACEMENT_3D ( 'NONE', #42, #150, #109 ) ;
#200 =( GEOMETRIC_REPRESENTATION_CONTEXT ( 3 ) GLOBAL_UNCERTAINTY_ASSIGNED_CONTEXT ( ( #63 ) ) GLOBAL_UNIT_ASSIGNED_CONTEXT ( ( #87, #101, #81 ) ) REPRESENTATION_CONTEXT ( 'NONE', 'WORKASPACE' ) );
#201 = APPLICATION_CONTEXT ( 'configuration controlled 3d designs of mechanical parts and assemblies' ) ;
#202 = CONICAL_SURFACE ( 'NONE', #31, 1.950000000000002398, 0.7853981633974476129 ) ;
#203 = PERSON_AND_ORGANIZATION ( #14, #126 ) ;
ENDSEC;
END-ISO-10303-21;
