ISO-10303-21;
HEADER;
FILE_DESCRIPTION (( 'STEP AP203' ),
    '1' );
FILE_NAME ('31586.step',
    '2021-10-15T13:34:30',
    ( '' ),
    ( '' ),
    'SwSTEP 2.0',
    'SolidWorks 2019',
    '' );
FILE_SCHEMA (( 'CONFIG_CONTROL_DESIGN' ));
ENDSEC;

DATA;
#1 = CYLINDRICAL_SURFACE ( 'NONE', #149, 1.449999999999995959 ) ;
#2 = DIRECTION ( 'NONE',  ( 4.275831445896958607E-31, 1.000000000000000000, 1.224646799147353207E-16 ) ) ;
#3 =( NAMED_UNIT ( * ) PLANE_ANGLE_UNIT ( ) SI_UNIT ( $, .RADIAN. ) );
#4 = LOCAL_TIME ( 15, 34, 30.00000000000000000, #169 ) ;
#5 = VERTEX_POINT ( 'NONE', #188 ) ;
#6 = APPROVAL_ROLE ( '' ) ;
#7 = EDGE_CURVE ( 'NONE', #138, #138, #91, .T. ) ;
#8 = DATE_TIME_ROLE ( 'creation_date' ) ;
#9 = APPROVAL_DATE_TIME ( #166, #34 ) ;
#10 = APPLICATION_PROTOCOL_DEFINITION ( 'international standard', 'config_control_design', 1994, #63 ) ;
#11 = ORIENTED_EDGE ( 'NONE', *, *, #12, .F. ) ;
#12 = EDGE_CURVE ( 'NONE', #5, #5, #116, .T. ) ;
#13 = CC_DESIGN_APPROVAL ( #165, ( #95 ) ) ;
#14 = DIRECTION ( 'NONE',  ( 0.0000000000000000000, 1.000000000000000000, 0.0000000000000000000 ) ) ;
#15 = MANIFOLD_SOLID_BREP ( 'Corps-Déplacer/Copier1[1]', #57 ) ;
#16 = CARTESIAN_POINT ( 'NONE',  ( 0.0000000000000000000, 0.0000000000000000000, 0.0000000000000000000 ) ) ;
#17 = ADVANCED_BREP_SHAPE_REPRESENTATION ( '31586', ( #15, #25, #144 ), #67 ) ;
#18 = PLANE ( 'NONE',  #133 ) ;
#19 = FACE_OUTER_BOUND ( 'NONE', #31, .T. ) ;
#20 = DIRECTION ( 'NONE',  ( -3.491481338843133355E-15, 1.224646799147353207E-16, -1.000000000000000000 ) ) ;
#21 = DIRECTION ( 'NONE',  ( -3.491481338843133355E-15, 1.224646799147353207E-16, -1.000000000000000000 ) ) ;
#22 = AXIS2_PLACEMENT_3D ( 'NONE', #156, #66, #14 ) ;
#23 = COORDINATED_UNIVERSAL_TIME_OFFSET ( 1, 0, .AHEAD. ) ;
#24 = PERSON_AND_ORGANIZATION ( #101, #176 ) ;
#25 = MANIFOLD_SOLID_BREP ( 'Corps-Déplacer/Copier1[2]', #36 ) ;
#26 = PERSON_AND_ORGANIZATION ( #101, #176 ) ;
#27 = AXIS2_PLACEMENT_3D ( 'NONE', #158, #135, #89 ) ;
#28 = DIRECTION ( 'NONE',  ( 1.000000000000000000, 0.0000000000000000000, 0.0000000000000000000 ) ) ;
#29 = CC_DESIGN_PERSON_AND_ORGANIZATION_ASSIGNMENT ( #26, #41, ( #87 ) ) ;
#30 = SHAPE_DEFINITION_REPRESENTATION ( #40, #17 ) ;
#31 = EDGE_LOOP ( 'NONE', ( #201 ) ) ;
#32 = DIRECTION ( 'NONE',  ( 5.312910191413082210E-31, 1.000000000000000000, 1.495451272393804226E-16 ) ) ;
#33 = EDGE_LOOP ( 'NONE', ( #11 ) ) ;
#34 = APPROVAL ( #110, 'UNSPECIFIED' ) ;
#35 = AXIS2_PLACEMENT_3D ( 'NONE', #160, #21, #159 ) ;
#36 = CLOSED_SHELL ( 'NONE', ( #47, #64, #130 ) ) ;
#37 = PLANE ( 'NONE',  #123 ) ;
#38 = DIRECTION ( 'NONE',  ( -4.275831445896958607E-31, -1.000000000000000000, -1.224646799147353207E-16 ) ) ;
#39 = FACE_OUTER_BOUND ( 'NONE', #33, .T. ) ;
#40 = PRODUCT_DEFINITION_SHAPE ( 'NONE', 'NONE',  #106 ) ;
#41 = PERSON_AND_ORGANIZATION_ROLE ( 'creator' ) ;
#42 = PERSON_AND_ORGANIZATION ( #101, #176 ) ;
#43 = CC_DESIGN_SECURITY_CLASSIFICATION ( #95, ( #87 ) ) ;
#44 = PERSON_AND_ORGANIZATION ( #101, #176 ) ;
#45 = APPROVAL_ROLE ( '' ) ;
#46 = EDGE_CURVE ( 'NONE', #175, #175, #143, .T. ) ;
#47 = ADVANCED_FACE ( 'NONE', ( #71 ), #80, .T. ) ;
#48 = CARTESIAN_POINT ( 'NONE',  ( 1.842653157210491497E-15, -6.463157244495809553E-17, 0.5277568396859986244 ) ) ;
#49 = DIRECTION ( 'NONE',  ( 0.0000000000000000000, 1.000000000000000000, 0.0000000000000000000 ) ) ;
#50 = CC_DESIGN_APPROVAL ( #34, ( #106 ) ) ;
#51 = AXIS2_PLACEMENT_3D ( 'NONE', #202, #69, #32 ) ;
#52 = CC_DESIGN_DATE_AND_TIME_ASSIGNMENT ( #99, #153, ( #95 ) ) ;
#53 = DIRECTION ( 'NONE',  ( -3.491481338843133355E-15, 1.224646799147353207E-16, -1.000000000000000000 ) ) ;
#54 = FACE_OUTER_BOUND ( 'NONE', #128, .T. ) ;
#55 = ADVANCED_FACE ( 'NONE', ( #179, #147 ), #189, .T. ) ;
#56 = APPROVAL_PERSON_ORGANIZATION ( #139, #165, #45 ) ;
#57 = CLOSED_SHELL ( 'NONE', ( #154, #55, #75, #85 ) ) ;
#58 = DIRECTION ( 'NONE',  ( -3.491481338843133355E-15, 1.224646799147353207E-16, -1.000000000000000000 ) ) ;
#59 = DIRECTION ( 'NONE',  ( 4.275831445896958607E-31, 1.000000000000000000, 1.224646799147353207E-16 ) ) ;
#60 = APPROVAL_PERSON_ORGANIZATION ( #24, #200, #112 ) ;
#61 = APPROVAL_DATE_TIME ( #77, #200 ) ;
#62 = PERSON_AND_ORGANIZATION ( #101, #176 ) ;
#63 = APPLICATION_CONTEXT ( 'configuration controlled 3d designs of mechanical parts and assemblies' ) ;
#64 = ADVANCED_FACE ( 'NONE', ( #19, #118 ), #1, .T. ) ;
#65 = UNCERTAINTY_MEASURE_WITH_UNIT (LENGTH_MEASURE( 1.000000000000000082E-05 ), #76, 'distance_accuracy_value', 'NONE');
#66 = DIRECTION ( 'NONE',  ( -3.491481338843133355E-15, 1.224646799147353207E-16, -1.000000000000000000 ) ) ;
#67 =( GEOMETRIC_REPRESENTATION_CONTEXT ( 3 ) GLOBAL_UNCERTAINTY_ASSIGNED_CONTEXT ( ( #65 ) ) GLOBAL_UNIT_ASSIGNED_CONTEXT ( ( #76, #3, #192 ) ) REPRESENTATION_CONTEXT ( 'NONE', 'WORKASPACE' ) );
#68 = EDGE_LOOP ( 'NONE', ( #203 ) ) ;
#69 = DIRECTION ( 'NONE',  ( -3.491481338843133355E-15, 1.224646799147353207E-16, -1.000000000000000000 ) ) ;
#70 = CC_DESIGN_PERSON_AND_ORGANIZATION_ASSIGNMENT ( #44, #196, ( #106 ) ) ;
#71 = FACE_OUTER_BOUND ( 'NONE', #174, .T. ) ;
#72 = AXIS2_PLACEMENT_3D ( 'NONE', #119, #161, #148 ) ;
#73 = FACE_BOUND ( 'NONE', #68, .T. ) ;
#74 = DIRECTION ( 'NONE',  ( 0.0000000000000000000, 1.000000000000000000, 0.0000000000000000000 ) ) ;
#75 = ADVANCED_FACE ( 'NONE', ( #39, #73 ), #195, .T. ) ;
#76 =( LENGTH_UNIT ( ) NAMED_UNIT ( * ) SI_UNIT ( .MILLI., .METRE. ) );
#77 = DATE_AND_TIME ( #182, #90 ) ;
#78 = PERSON_AND_ORGANIZATION_ROLE ( 'classification_officer' ) ;
#79 = COORDINATED_UNIVERSAL_TIME_OFFSET ( 1, 0, .AHEAD. ) ;
#80 = CONICAL_SURFACE ( 'NONE', #185, 1.449999999999995071, 1.221730476396026388 ) ;
#81 = DIRECTION ( 'NONE',  ( -3.491481338843133355E-15, 1.224646799147353207E-16, -1.000000000000000000 ) ) ;
#82 = ORIENTED_EDGE ( 'NONE', *, *, #124, .T. ) ;
#83 = APPROVAL_PERSON_ORGANIZATION ( #199, #34, #6 ) ;
#84 = CC_DESIGN_DATE_AND_TIME_ASSIGNMENT ( #126, #8, ( #106 ) ) ;
#85 = ADVANCED_FACE ( 'NONE', ( #54 ), #146, .F. ) ;
#86 = FACE_OUTER_BOUND ( 'NONE', #129, .T. ) ;
#87 = PRODUCT_DEFINITION_FORMATION_WITH_SPECIFIED_SOURCE ( 'ANY', '', #137, .NOT_KNOWN. ) ;
#88 = CARTESIAN_POINT ( 'NONE',  ( 5.586370142149013368E-14, 1.449999999999995071, 16.00000000000000000 ) ) ;
#89 = DIRECTION ( 'NONE',  ( 4.275831445896958607E-31, 1.000000000000000000, 1.224646799147353207E-16 ) ) ;
#90 = LOCAL_TIME ( 15, 34, 30.00000000000000000, #23 ) ;
#91 = CIRCLE ( 'NONE', #198, 1.100000000000000755 ) ;
#92 = VERTEX_POINT ( 'NONE', #180 ) ;
#93 = CC_DESIGN_PERSON_AND_ORGANIZATION_ASSIGNMENT ( #62, #164, ( #87 ) ) ;
#94 = COORDINATED_UNIVERSAL_TIME_OFFSET ( 1, 0, .AHEAD. ) ;
#95 = SECURITY_CLASSIFICATION ( '', '', #150 ) ;
#96 = PERSON_AND_ORGANIZATION ( #101, #176 ) ;
#97 = CC_DESIGN_PERSON_AND_ORGANIZATION_ASSIGNMENT ( #42, #141, ( #137 ) ) ;
#98 = CALENDAR_DATE ( 2021, 15, 10 ) ;
#99 = DATE_AND_TIME ( #168, #111 ) ;
#100 = CALENDAR_DATE ( 2021, 15, 10 ) ;
#101 = PERSON ( 'UNSPECIFIED', 'UNSPECIFIED', 'UNSPECIFIED', ('UNSPECIFIED'), ('UNSPECIFIED'), ('UNSPECIFIED') ) ;
#102 = EDGE_LOOP ( 'NONE', ( #132 ) ) ;
#103 = VERTEX_POINT ( 'NONE', #88 ) ;
#104 = LOCAL_TIME ( 15, 34, 30.00000000000000000, #94 ) ;
#105 = DIRECTION ( 'NONE',  ( -4.275831445896958607E-31, -1.000000000000000000, -1.224646799147353207E-16 ) ) ;
#106 = PRODUCT_DEFINITION ( 'UNKNOWN', '', #87, #114 ) ;
#107 = CARTESIAN_POINT ( 'NONE',  ( 1.606081415867841091E-13, -5.633375276077824704E-15, 46.00000000000000000 ) ) ;
#108 = CARTESIAN_POINT ( 'NONE',  ( 0.0000000000000000000, 0.0000000000000000000, 0.0000000000000000000 ) ) ;
#109 = APPLICATION_PROTOCOL_DEFINITION ( 'international standard', 'config_control_design', 1994, #162 ) ;
#110 = APPROVAL_STATUS ( 'not_yet_approved' ) ;
#111 = LOCAL_TIME ( 15, 34, 30.00000000000000000, #181 ) ;
#112 = APPROVAL_ROLE ( '' ) ;
#113 = APPROVAL_DATE_TIME ( #183, #165 ) ;
#114 = DESIGN_CONTEXT ( 'detailed design', #162, 'design' ) ;
#115 = EDGE_LOOP ( 'NONE', ( #186 ) ) ;
#116 = CIRCLE ( 'NONE', #22, 1.450000000000000844 ) ;
#117 = ORIENTED_EDGE ( 'NONE', *, *, #124, .F. ) ;
#118 = FACE_OUTER_BOUND ( 'NONE', #102, .T. ) ;
#119 = CARTESIAN_POINT ( 'NONE',  ( 5.586370142149013368E-14, -1.959434878635765131E-15, 16.00000000000000000 ) ) ;
#120 = CARTESIAN_POINT ( 'NONE',  ( 5.586370142149013368E-14, 1.087325842429841702E-32, 16.00000000000000000 ) ) ;
#121 = CARTESIAN_POINT ( 'NONE',  ( 1.842653157210492286E-15, 1.449999999999995071, 0.5277568396859987354 ) ) ;
#122 = CARTESIAN_POINT ( 'NONE',  ( 0.0000000000000000000, 0.0000000000000000000, 0.0000000000000000000 ) ) ;
#123 = AXIS2_PLACEMENT_3D ( 'NONE', #120, #178, #38 ) ;
#124 = EDGE_CURVE ( 'NONE', #92, #92, #167, .T. ) ;
#125 = APPROVAL_STATUS ( 'not_yet_approved' ) ;
#126 = DATE_AND_TIME ( #127, #140 ) ;
#127 = CALENDAR_DATE ( 2021, 15, 10 ) ;
#128 = EDGE_LOOP ( 'NONE', ( #145 ) ) ;
#129 = EDGE_LOOP ( 'NONE', ( #82 ) ) ;
#130 = ADVANCED_FACE ( 'NONE', ( #177 ), #37, .T. ) ;
#131 = ORIENTED_EDGE ( 'NONE', *, *, #12, .T. ) ;
#132 = ORIENTED_EDGE ( 'NONE', *, *, #187, .T. ) ;
#133 = AXIS2_PLACEMENT_3D ( 'NONE', #134, #163, #105 ) ;
#134 = CARTESIAN_POINT ( 'NONE',  ( 5.586370142149013368E-14, 1.087325842429841702E-32, 16.00000000000000000 ) ) ;
#135 = DIRECTION ( 'NONE',  ( -3.491481338843133355E-15, 1.224646799147353207E-16, -1.000000000000000000 ) ) ;
#136 = DIRECTION ( 'NONE',  ( 3.491481338843133355E-15, -1.224646799147353207E-16, 1.000000000000000000 ) ) ;
#137 = PRODUCT ( '31586', '31586', '', ( #142 ) ) ;
#138 = VERTEX_POINT ( 'NONE', #194 ) ;
#139 = PERSON_AND_ORGANIZATION ( #101, #176 ) ;
#140 = LOCAL_TIME ( 15, 34, 30.00000000000000000, #79 ) ;
#141 = PERSON_AND_ORGANIZATION_ROLE ( 'design_owner' ) ;
#142 = MECHANICAL_CONTEXT ( 'NONE', #63, 'mechanical' ) ;
#143 = CIRCLE ( 'NONE', #51, 1.449999999999995071 ) ;
#144 = AXIS2_PLACEMENT_3D ( 'NONE', #108, #151, #28 ) ;
#145 = ORIENTED_EDGE ( 'NONE', *, *, #7, .F. ) ;
#146 = PLANE ( 'NONE',  #27 ) ;
#147 = FACE_OUTER_BOUND ( 'NONE', #155, .T. ) ;
#148 = DIRECTION ( 'NONE',  ( 0.0000000000000000000, 1.000000000000000000, 0.0000000000000000000 ) ) ;
#149 = AXIS2_PLACEMENT_3D ( 'NONE', #122, #53, #2 ) ;
#150 = SECURITY_CLASSIFICATION_LEVEL ( 'unclassified' ) ;
#151 = DIRECTION ( 'NONE',  ( 0.0000000000000000000, 0.0000000000000000000, 1.000000000000000000 ) ) ;
#152 = CIRCLE ( 'NONE', #35, 1.449999999999997069 ) ;
#153 = DATE_TIME_ROLE ( 'classification_date' ) ;
#154 = ADVANCED_FACE ( 'NONE', ( #86 ), #18, .F. ) ;
#155 = EDGE_LOOP ( 'NONE', ( #131 ) ) ;
#156 = CARTESIAN_POINT ( 'NONE',  ( 1.593861231181890219E-13, -5.590512638107667560E-15, 45.64999999999999858 ) ) ;
#157 = PRODUCT_RELATED_PRODUCT_CATEGORY ( 'detail', '', ( #137 ) ) ;
#158 = CARTESIAN_POINT ( 'NONE',  ( 1.606081415867841091E-13, 8.248678804640137473E-33, 46.00000000000000000 ) ) ;
#159 = DIRECTION ( 'NONE',  ( 0.0000000000000000000, 1.000000000000000000, 0.0000000000000000000 ) ) ;
#160 = CARTESIAN_POINT ( 'NONE',  ( 5.586370142149013368E-14, -1.959434878635765131E-15, 16.00000000000000000 ) ) ;
#161 = DIRECTION ( 'NONE',  ( -3.491481338843133355E-15, 1.224646799147353207E-16, -1.000000000000000000 ) ) ;
#162 = APPLICATION_CONTEXT ( 'configuration controlled 3d designs of mechanical parts and assemblies' ) ;
#163 = DIRECTION ( 'NONE',  ( 3.491481338843133355E-15, -1.224646799147353207E-16, 1.000000000000000000 ) ) ;
#164 = PERSON_AND_ORGANIZATION_ROLE ( 'design_supplier' ) ;
#165 = APPROVAL ( #125, 'UNSPECIFIED' ) ;
#166 = DATE_AND_TIME ( #98, #104 ) ;
#167 = CIRCLE ( 'NONE', #72, 1.449999999999997069 ) ;
#168 = CALENDAR_DATE ( 2021, 15, 10 ) ;
#169 = COORDINATED_UNIVERSAL_TIME_OFFSET ( 1, 0, .AHEAD. ) ;
#170 = CARTESIAN_POINT ( 'NONE',  ( 1.606081415867841091E-13, -5.633375276077824704E-15, 46.00000000000000000 ) ) ;
#171 = AXIS2_PLACEMENT_3D ( 'NONE', #107, #58, #74 ) ;
#172 = AXIS2_PLACEMENT_3D ( 'NONE', #16, #20, #59 ) ;
#173 = ORIENTED_EDGE ( 'NONE', *, *, #46, .T. ) ;
#174 = EDGE_LOOP ( 'NONE', ( #173 ) ) ;
#175 = VERTEX_POINT ( 'NONE', #121 ) ;
#176 = ORGANIZATION ( 'UNSPECIFIED', 'UNSPECIFIED', '' ) ;
#177 = FACE_OUTER_BOUND ( 'NONE', #115, .T. ) ;
#178 = DIRECTION ( 'NONE',  ( 3.491481338843133355E-15, -1.224646799147353207E-16, 1.000000000000000000 ) ) ;
#179 = FACE_OUTER_BOUND ( 'NONE', #184, .T. ) ;
#180 = CARTESIAN_POINT ( 'NONE',  ( 5.586370142149013368E-14, 1.449999999999995071, 16.00000000000000000 ) ) ;
#181 = COORDINATED_UNIVERSAL_TIME_OFFSET ( 1, 0, .AHEAD. ) ;
#182 = CALENDAR_DATE ( 2021, 15, 10 ) ;
#183 = DATE_AND_TIME ( #100, #4 ) ;
#184 = EDGE_LOOP ( 'NONE', ( #117 ) ) ;
#185 = AXIS2_PLACEMENT_3D ( 'NONE', #48, #136, #191 ) ;
#186 = ORIENTED_EDGE ( 'NONE', *, *, #187, .F. ) ;
#187 = EDGE_CURVE ( 'NONE', #103, #103, #152, .T. ) ;
#188 = CARTESIAN_POINT ( 'NONE',  ( 1.593861231181890219E-13, 1.449999999999995071, 45.64999999999999858 ) ) ;
#189 = CYLINDRICAL_SURFACE ( 'NONE', #172, 1.449999999999999067 ) ;
#190 = CC_DESIGN_APPROVAL ( #200, ( #87 ) ) ;
#191 = DIRECTION ( 'NONE',  ( -5.312910191413082210E-31, -1.000000000000000000, -1.495451272393804226E-16 ) ) ;
#192 =( NAMED_UNIT ( * ) SI_UNIT ( $, .STERADIAN. ) SOLID_ANGLE_UNIT ( ) );
#193 = CC_DESIGN_PERSON_AND_ORGANIZATION_ASSIGNMENT ( #96, #78, ( #95 ) ) ;
#194 = CARTESIAN_POINT ( 'NONE',  ( 1.606081415867841091E-13, 1.099999999999994982, 46.00000000000000000 ) ) ;
#195 = CONICAL_SURFACE ( 'NONE', #171, 1.100000000000000755, 0.7853981633974439491 ) ;
#196 = PERSON_AND_ORGANIZATION_ROLE ( 'creator' ) ;
#197 = APPROVAL_STATUS ( 'not_yet_approved' ) ;
#198 = AXIS2_PLACEMENT_3D ( 'NONE', #170, #81, #49 ) ;
#199 = PERSON_AND_ORGANIZATION ( #101, #176 ) ;
#200 = APPROVAL ( #197, 'UNSPECIFIED' ) ;
#201 = ORIENTED_EDGE ( 'NONE', *, *, #46, .F. ) ;
#202 = CARTESIAN_POINT ( 'NONE',  ( 1.842653157210491497E-15, -6.463157244495809553E-17, 0.5277568396859986244 ) ) ;
#203 = ORIENTED_EDGE ( 'NONE', *, *, #7, .T. ) ;
ENDSEC;
END-ISO-10303-21;
