ISO-10303-21;
HEADER;
FILE_DESCRIPTION (( 'STEP AP203' ),
    '1' );
FILE_NAME ('31583.step',
    '2021-10-15T13:34:30',
    ( '' ),
    ( '' ),
    'SwSTEP 2.0',
    'SolidWorks 2019',
    '' );
FILE_SCHEMA (( 'CONFIG_CONTROL_DESIGN' ));
ENDSEC;

DATA;
#1 = FACE_OUTER_BOUND ( 'NONE', #136, .T. ) ;
#2 = DIRECTION ( 'NONE',  ( 3.491481338843133355E-15, -1.224646799147353207E-16, 1.000000000000000000 ) ) ;
#3 = DIRECTION ( 'NONE',  ( 1.000000000000000000, 0.0000000000000000000, 0.0000000000000000000 ) ) ;
#4 = CARTESIAN_POINT ( 'NONE',  ( 4.538925740496073362E-14, -1.592040838891559095E-15, 13.00000000000000000 ) ) ;
#5 = FACE_OUTER_BOUND ( 'NONE', #127, .T. ) ;
#6 = DATE_AND_TIME ( #123, #41 ) ;
#7 = AXIS2_PLACEMENT_3D ( 'NONE', #178, #161, #82 ) ;
#8 = PERSON_AND_ORGANIZATION ( #101, #179 ) ;
#9 = PERSON_AND_ORGANIZATION_ROLE ( 'creator' ) ;
#10 = CC_DESIGN_APPROVAL ( #69, ( #18 ) ) ;
#11 = PRODUCT ( '31583', '31583', '', ( #180 ) ) ;
#12 = ADVANCED_FACE ( 'NONE', ( #1 ), #80, .T. ) ;
#13 = MANIFOLD_SOLID_BREP ( 'Corps-Déplacer/Copier1[1]', #168 ) ;
#14 = CARTESIAN_POINT ( 'NONE',  ( 1.396592535537253342E-13, -4.898587196589413026E-15, 40.00000000000000000 ) ) ;
#15 = AXIS2_PLACEMENT_3D ( 'NONE', #128, #118, #3 ) ;
#16 = ORIENTED_EDGE ( 'NONE', *, *, #182, .F. ) ;
#17 = ORIENTED_EDGE ( 'NONE', *, *, #166, .F. ) ;
#18 = PRODUCT_DEFINITION_FORMATION_WITH_SPECIFIED_SOURCE ( 'ANY', '', #11, .NOT_KNOWN. ) ;
#19 =( LENGTH_UNIT ( ) NAMED_UNIT ( * ) SI_UNIT ( .MILLI., .METRE. ) );
#20 = FACE_OUTER_BOUND ( 'NONE', #75, .T. ) ;
#21 = CIRCLE ( 'NONE', #104, 1.149999999999997025 ) ;
#22 = FACE_OUTER_BOUND ( 'NONE', #173, .T. ) ;
#23 = ADVANCED_FACE ( 'NONE', ( #31, #157 ), #78, .T. ) ;
#24 = MANIFOLD_SOLID_BREP ( 'Corps-Déplacer/Copier1[2]', #34 ) ;
#25 = CC_DESIGN_PERSON_AND_ORGANIZATION_ASSIGNMENT ( #167, #169, ( #11 ) ) ;
#26 = APPLICATION_CONTEXT ( 'configuration controlled 3d designs of mechanical parts and assemblies' ) ;
#27 = APPROVAL_DATE_TIME ( #106, #163 ) ;
#28 = DATE_AND_TIME ( #47, #66 ) ;
#29 = COORDINATED_UNIVERSAL_TIME_OFFSET ( 1, 0, .AHEAD. ) ;
#30 = PERSON_AND_ORGANIZATION_ROLE ( 'creator' ) ;
#31 = FACE_OUTER_BOUND ( 'NONE', #187, .T. ) ;
#32 = ORIENTED_EDGE ( 'NONE', *, *, #88, .F. ) ;
#33 = ADVANCED_FACE ( 'NONE', ( #48 ), #50, .T. ) ;
#34 = CLOSED_SHELL ( 'NONE', ( #12, #23, #33 ) ) ;
#35 = CARTESIAN_POINT ( 'NONE',  ( 1.461414572960043940E-15, -5.125952297358743021E-17, 0.4185657694061366008 ) ) ;
#36 = PLANE ( 'NONE',  #125 ) ;
#37 = ADVANCED_BREP_SHAPE_REPRESENTATION ( '31583', ( #13, #24, #15 ), #46 ) ;
#38 = CC_DESIGN_PERSON_AND_ORGANIZATION_ASSIGNMENT ( #147, #181, ( #18 ) ) ;
#39 = CARTESIAN_POINT ( 'NONE',  ( 0.0000000000000000000, 0.0000000000000000000, 0.0000000000000000000 ) ) ;
#40 = ADVANCED_FACE ( 'NONE', ( #188, #156 ), #54, .T. ) ;
#41 = LOCAL_TIME ( 15, 34, 30.00000000000000000, #183 ) ;
#42 = CYLINDRICAL_SURFACE ( 'NONE', #193, 1.149999999999998579 ) ;
#43 = APPROVAL_STATUS ( 'not_yet_approved' ) ;
#44 = PERSON_AND_ORGANIZATION_ROLE ( 'classification_officer' ) ;
#45 = APPROVAL_ROLE ( '' ) ;
#46 =( GEOMETRIC_REPRESENTATION_CONTEXT ( 3 ) GLOBAL_UNCERTAINTY_ASSIGNED_CONTEXT ( ( #93 ) ) GLOBAL_UNIT_ASSIGNED_CONTEXT ( ( #19, #131, #192 ) ) REPRESENTATION_CONTEXT ( 'NONE', 'WORKASPACE' ) );
#47 = CALENDAR_DATE ( 2021, 15, 10 ) ;
#48 = FACE_OUTER_BOUND ( 'NONE', #158, .T. ) ;
#49 = ORIENTED_EDGE ( 'NONE', *, *, #74, .T. ) ;
#50 = PLANE ( 'NONE',  #135 ) ;
#51 = DIRECTION ( 'NONE',  ( 3.491481338843133355E-15, -1.224646799147353207E-16, 1.000000000000000000 ) ) ;
#52 = DIRECTION ( 'NONE',  ( -4.275831445896958607E-31, -1.000000000000000000, -1.224646799147353207E-16 ) ) ;
#53 = DIRECTION ( 'NONE',  ( 0.0000000000000000000, 1.000000000000000000, 0.0000000000000000000 ) ) ;
#54 = CONICAL_SURFACE ( 'NONE', #58, 0.8000000000000002665, 0.7853981633974438381 ) ;
#55 = AXIS2_PLACEMENT_3D ( 'NONE', #35, #86, #102 ) ;
#56 = DESIGN_CONTEXT ( 'detailed design', #103, 'design' ) ;
#57 = DATE_AND_TIME ( #165, #114 ) ;
#58 = AXIS2_PLACEMENT_3D ( 'NONE', #14, #113, #174 ) ;
#59 = DIRECTION ( 'NONE',  ( 3.491481338843133355E-15, -1.224646799147353207E-16, 1.000000000000000000 ) ) ;
#60 = CC_DESIGN_APPROVAL ( #203, ( #138 ) ) ;
#61 = EDGE_LOOP ( 'NONE', ( #49 ) ) ;
#62 = CARTESIAN_POINT ( 'NONE',  ( 0.0000000000000000000, 0.0000000000000000000, 0.0000000000000000000 ) ) ;
#63 = CARTESIAN_POINT ( 'NONE',  ( 1.461414572960043940E-15, -5.125952297358743021E-17, 0.4185657694061366008 ) ) ;
#64 = DIRECTION ( 'NONE',  ( -3.491481338843133355E-15, 1.224646799147353207E-16, -1.000000000000000000 ) ) ;
#65 = DIRECTION ( 'NONE',  ( -3.491481338843133355E-15, 1.224646799147353207E-16, -1.000000000000000000 ) ) ;
#66 = LOCAL_TIME ( 15, 34, 30.00000000000000000, #122 ) ;
#67 = ADVANCED_FACE ( 'NONE', ( #5, #22 ), #42, .T. ) ;
#68 = CARTESIAN_POINT ( 'NONE',  ( 1.396592535537253342E-13, 5.999039130647359272E-33, 40.00000000000000000 ) ) ;
#69 = APPROVAL ( #43, 'UNSPECIFIED' ) ;
#70 = PLANE ( 'NONE',  #202 ) ;
#71 = SHAPE_DEFINITION_REPRESENTATION ( #186, #37 ) ;
#72 = DATE_TIME_ROLE ( 'creation_date' ) ;
#73 = DATE_AND_TIME ( #133, #96 ) ;
#74 = EDGE_CURVE ( 'NONE', #100, #100, #21, .T. ) ;
#75 = EDGE_LOOP ( 'NONE', ( #16 ) ) ;
#76 = CIRCLE ( 'NONE', #90, 1.150000000000000133 ) ;
#77 = ORIENTED_EDGE ( 'NONE', *, *, #166, .T. ) ;
#78 = CYLINDRICAL_SURFACE ( 'NONE', #150, 1.149999999999996136 ) ;
#79 = EDGE_LOOP ( 'NONE', ( #189 ) ) ;
#80 = CONICAL_SURFACE ( 'NONE', #121, 1.149999999999995470, 1.221730476396026388 ) ;
#81 = CC_DESIGN_PERSON_AND_ORGANIZATION_ASSIGNMENT ( #146, #9, ( #170 ) ) ;
#82 = DIRECTION ( 'NONE',  ( 0.0000000000000000000, 1.000000000000000000, 0.0000000000000000000 ) ) ;
#83 = VERTEX_POINT ( 'NONE', #143 ) ;
#84 = CARTESIAN_POINT ( 'NONE',  ( 4.538925740496073362E-14, 8.623618750305634718E-33, 13.00000000000000000 ) ) ;
#85 = APPROVAL_PERSON_ORGANIZATION ( #109, #69, #45 ) ;
#86 = DIRECTION ( 'NONE',  ( -3.491481338843133355E-15, 1.224646799147353207E-16, -1.000000000000000000 ) ) ;
#87 = APPLICATION_PROTOCOL_DEFINITION ( 'international standard', 'config_control_design', 1994, #26 ) ;
#88 = EDGE_CURVE ( 'NONE', #120, #120, #76, .T. ) ;
#89 = APPLICATION_PROTOCOL_DEFINITION ( 'international standard', 'config_control_design', 1994, #103 ) ;
#90 = AXIS2_PLACEMENT_3D ( 'NONE', #141, #65, #176 ) ;
#91 = APPROVAL_DATE_TIME ( #6, #69 ) ;
#92 = CC_DESIGN_PERSON_AND_ORGANIZATION_ASSIGNMENT ( #95, #44, ( #138 ) ) ;
#93 = UNCERTAINTY_MEASURE_WITH_UNIT (LENGTH_MEASURE( 1.000000000000000082E-05 ), #19, 'distance_accuracy_value', 'NONE');
#94 = CALENDAR_DATE ( 2021, 15, 10 ) ;
#95 = PERSON_AND_ORGANIZATION ( #101, #179 ) ;
#96 = LOCAL_TIME ( 15, 34, 30.00000000000000000, #107 ) ;
#97 = DIRECTION ( 'NONE',  ( 4.275831445896957731E-31, 1.000000000000000000, 1.224646799147353207E-16 ) ) ;
#98 = DIRECTION ( 'NONE',  ( -5.024165072314548380E-31, -1.000000000000000000, -1.414176746720228823E-16 ) ) ;
#99 = ORIENTED_EDGE ( 'NONE', *, *, #74, .F. ) ;
#100 = VERTEX_POINT ( 'NONE', #159 ) ;
#101 = PERSON ( 'UNSPECIFIED', 'UNSPECIFIED', 'UNSPECIFIED', ('UNSPECIFIED'), ('UNSPECIFIED'), ('UNSPECIFIED') ) ;
#102 = DIRECTION ( 'NONE',  ( 5.024165072314548380E-31, 1.000000000000000000, 1.414176746720228823E-16 ) ) ;
#103 = APPLICATION_CONTEXT ( 'configuration controlled 3d designs of mechanical parts and assemblies' ) ;
#104 = AXIS2_PLACEMENT_3D ( 'NONE', #175, #116, #177 ) ;
#105 = DIRECTION ( 'NONE',  ( -3.491481338843133355E-15, 1.224646799147353207E-16, -1.000000000000000000 ) ) ;
#106 = DATE_AND_TIME ( #94, #172 ) ;
#107 = COORDINATED_UNIVERSAL_TIME_OFFSET ( 1, 0, .AHEAD. ) ;
#108 = CIRCLE ( 'NONE', #55, 1.149999999999995470 ) ;
#109 = PERSON_AND_ORGANIZATION ( #101, #179 ) ;
#110 = ADVANCED_FACE ( 'NONE', ( #164 ), #36, .F. ) ;
#111 = APPROVAL_STATUS ( 'not_yet_approved' ) ;
#112 = CIRCLE ( 'NONE', #117, 1.149999999999997025 ) ;
#113 = DIRECTION ( 'NONE',  ( -3.491481338843133355E-15, 1.224646799147353207E-16, -1.000000000000000000 ) ) ;
#114 = LOCAL_TIME ( 15, 34, 30.00000000000000000, #124 ) ;
#115 = ORIENTED_EDGE ( 'NONE', *, *, #88, .T. ) ;
#116 = DIRECTION ( 'NONE',  ( -3.491481338843133355E-15, 1.224646799147353207E-16, -1.000000000000000000 ) ) ;
#117 = AXIS2_PLACEMENT_3D ( 'NONE', #4, #191, #53 ) ;
#118 = DIRECTION ( 'NONE',  ( 0.0000000000000000000, 0.0000000000000000000, 1.000000000000000000 ) ) ;
#119 = VERTEX_POINT ( 'NONE', #195 ) ;
#120 = VERTEX_POINT ( 'NONE', #129 ) ;
#121 = AXIS2_PLACEMENT_3D ( 'NONE', #63, #51, #98 ) ;
#122 = COORDINATED_UNIVERSAL_TIME_OFFSET ( 1, 0, .AHEAD. ) ;
#123 = CALENDAR_DATE ( 2021, 15, 10 ) ;
#124 = COORDINATED_UNIVERSAL_TIME_OFFSET ( 1, 0, .AHEAD. ) ;
#125 = AXIS2_PLACEMENT_3D ( 'NONE', #84, #2, #52 ) ;
#126 = EDGE_LOOP ( 'NONE', ( #32 ) ) ;
#127 = EDGE_LOOP ( 'NONE', ( #99 ) ) ;
#128 = CARTESIAN_POINT ( 'NONE',  ( 0.0000000000000000000, 0.0000000000000000000, 0.0000000000000000000 ) ) ;
#129 = CARTESIAN_POINT ( 'NONE',  ( 1.384372350851302470E-13, 1.149999999999995470, 39.64999999999999858 ) ) ;
#130 = DIRECTION ( 'NONE',  ( 4.275831445896958607E-31, 1.000000000000000000, 1.224646799147353207E-16 ) ) ;
#131 =( NAMED_UNIT ( * ) PLANE_ANGLE_UNIT ( ) SI_UNIT ( $, .RADIAN. ) );
#132 = PERSON_AND_ORGANIZATION ( #101, #179 ) ;
#133 = CALENDAR_DATE ( 2021, 15, 10 ) ;
#134 = APPROVAL_STATUS ( 'not_yet_approved' ) ;
#135 = AXIS2_PLACEMENT_3D ( 'NONE', #153, #59, #154 ) ;
#136 = EDGE_LOOP ( 'NONE', ( #77 ) ) ;
#137 = CC_DESIGN_DATE_AND_TIME_ASSIGNMENT ( #73, #198, ( #138 ) ) ;
#138 = SECURITY_CLASSIFICATION ( '', '', #171 ) ;
#139 = EDGE_LOOP ( 'NONE', ( #190 ) ) ;
#140 = ORIENTED_EDGE ( 'NONE', *, *, #142, .F. ) ;
#141 = CARTESIAN_POINT ( 'NONE',  ( 1.384372350851302470E-13, -4.855724558619255093E-15, 39.64999999999999858 ) ) ;
#142 = EDGE_CURVE ( 'NONE', #119, #119, #112, .T. ) ;
#143 = CARTESIAN_POINT ( 'NONE',  ( 1.396592535537253342E-13, 0.7999999999999953815, 40.00000000000000000 ) ) ;
#144 = DIRECTION ( 'NONE',  ( 4.275831445896958607E-31, 1.000000000000000000, 1.224646799147353207E-16 ) ) ;
#145 = CC_DESIGN_SECURITY_CLASSIFICATION ( #138, ( #18 ) ) ;
#146 = PERSON_AND_ORGANIZATION ( #101, #179 ) ;
#147 = PERSON_AND_ORGANIZATION ( #101, #179 ) ;
#148 = APPROVAL_DATE_TIME ( #28, #203 ) ;
#149 = APPROVAL_ROLE ( '' ) ;
#150 = AXIS2_PLACEMENT_3D ( 'NONE', #62, #185, #97 ) ;
#151 = PERSON_AND_ORGANIZATION ( #101, #179 ) ;
#152 = CC_DESIGN_DATE_AND_TIME_ASSIGNMENT ( #57, #72, ( #170 ) ) ;
#153 = CARTESIAN_POINT ( 'NONE',  ( 4.538925740496073362E-14, 8.623618750305634718E-33, 13.00000000000000000 ) ) ;
#154 = DIRECTION ( 'NONE',  ( -4.275831445896958607E-31, -1.000000000000000000, -1.224646799147353207E-16 ) ) ;
#155 = APPROVAL_PERSON_ORGANIZATION ( #8, #203, #149 ) ;
#156 = FACE_BOUND ( 'NONE', #139, .T. ) ;
#157 = FACE_OUTER_BOUND ( 'NONE', #79, .T. ) ;
#158 = EDGE_LOOP ( 'NONE', ( #140 ) ) ;
#159 = CARTESIAN_POINT ( 'NONE',  ( 4.538925740496073362E-14, 1.149999999999995470, 13.00000000000000000 ) ) ;
#160 = VERTEX_POINT ( 'NONE', #194 ) ;
#161 = DIRECTION ( 'NONE',  ( -3.491481338843133355E-15, 1.224646799147353207E-16, -1.000000000000000000 ) ) ;
#162 = CIRCLE ( 'NONE', #7, 0.8000000000000002665 ) ;
#163 = APPROVAL ( #134, 'UNSPECIFIED' ) ;
#164 = FACE_OUTER_BOUND ( 'NONE', #61, .T. ) ;
#165 = CALENDAR_DATE ( 2021, 15, 10 ) ;
#166 = EDGE_CURVE ( 'NONE', #160, #160, #108, .T. ) ;
#167 = PERSON_AND_ORGANIZATION ( #101, #179 ) ;
#168 = CLOSED_SHELL ( 'NONE', ( #110, #67, #40, #197 ) ) ;
#169 = PERSON_AND_ORGANIZATION_ROLE ( 'design_owner' ) ;
#170 = PRODUCT_DEFINITION ( 'UNKNOWN', '', #18, #56 ) ;
#171 = SECURITY_CLASSIFICATION_LEVEL ( 'unclassified' ) ;
#172 = LOCAL_TIME ( 15, 34, 30.00000000000000000, #29 ) ;
#173 = EDGE_LOOP ( 'NONE', ( #115 ) ) ;
#174 = DIRECTION ( 'NONE',  ( 0.0000000000000000000, 1.000000000000000000, 0.0000000000000000000 ) ) ;
#175 = CARTESIAN_POINT ( 'NONE',  ( 4.538925740496073362E-14, -1.592040838891559095E-15, 13.00000000000000000 ) ) ;
#176 = DIRECTION ( 'NONE',  ( 0.0000000000000000000, 1.000000000000000000, 0.0000000000000000000 ) ) ;
#177 = DIRECTION ( 'NONE',  ( 0.0000000000000000000, 1.000000000000000000, 0.0000000000000000000 ) ) ;
#178 = CARTESIAN_POINT ( 'NONE',  ( 1.396592535537253342E-13, -4.898587196589413026E-15, 40.00000000000000000 ) ) ;
#179 = ORGANIZATION ( 'UNSPECIFIED', 'UNSPECIFIED', '' ) ;
#180 = MECHANICAL_CONTEXT ( 'NONE', #26, 'mechanical' ) ;
#181 = PERSON_AND_ORGANIZATION_ROLE ( 'design_supplier' ) ;
#182 = EDGE_CURVE ( 'NONE', #83, #83, #162, .T. ) ;
#183 = COORDINATED_UNIVERSAL_TIME_OFFSET ( 1, 0, .AHEAD. ) ;
#184 = CC_DESIGN_PERSON_AND_ORGANIZATION_ASSIGNMENT ( #132, #30, ( #18 ) ) ;
#185 = DIRECTION ( 'NONE',  ( -3.491481338843133355E-15, 1.224646799147353207E-16, -1.000000000000000000 ) ) ;
#186 = PRODUCT_DEFINITION_SHAPE ( 'NONE', 'NONE',  #170 ) ;
#187 = EDGE_LOOP ( 'NONE', ( #17 ) ) ;
#188 = FACE_OUTER_BOUND ( 'NONE', #126, .T. ) ;
#189 = ORIENTED_EDGE ( 'NONE', *, *, #142, .T. ) ;
#190 = ORIENTED_EDGE ( 'NONE', *, *, #182, .T. ) ;
#191 = DIRECTION ( 'NONE',  ( -3.491481338843133355E-15, 1.224646799147353207E-16, -1.000000000000000000 ) ) ;
#192 =( NAMED_UNIT ( * ) SI_UNIT ( $, .STERADIAN. ) SOLID_ANGLE_UNIT ( ) );
#193 = AXIS2_PLACEMENT_3D ( 'NONE', #39, #105, #144 ) ;
#194 = CARTESIAN_POINT ( 'NONE',  ( 1.461414572960044532E-15, 1.149999999999995470, 0.4185657694061367673 ) ) ;
#195 = CARTESIAN_POINT ( 'NONE',  ( 4.538925740496073362E-14, 1.149999999999995470, 13.00000000000000000 ) ) ;
#196 = APPROVAL_PERSON_ORGANIZATION ( #151, #163, #200 ) ;
#197 = ADVANCED_FACE ( 'NONE', ( #20 ), #70, .F. ) ;
#198 = DATE_TIME_ROLE ( 'classification_date' ) ;
#199 = PRODUCT_RELATED_PRODUCT_CATEGORY ( 'detail', '', ( #11 ) ) ;
#200 = APPROVAL_ROLE ( '' ) ;
#201 = CC_DESIGN_APPROVAL ( #163, ( #170 ) ) ;
#202 = AXIS2_PLACEMENT_3D ( 'NONE', #68, #64, #130 ) ;
#203 = APPROVAL ( #111, 'UNSPECIFIED' ) ;
ENDSEC;
END-ISO-10303-21;
