ISO-10303-21;
HEADER;
FILE_DESCRIPTION (( 'STEP AP203' ),
    '1' );
FILE_NAME ('31581.step',
    '2021-10-15T13:34:29',
    ( '' ),
    ( '' ),
    'SwSTEP 2.0',
    'SolidWorks 2019',
    '' );
FILE_SCHEMA (( 'CONFIG_CONTROL_DESIGN' ));
ENDSEC;

DATA;
#1 = DIRECTION ( 'NONE',  ( -3.668437989309036103E-31, -1.000000000000000000, -1.032573497605246662E-16 ) ) ;
#2 = DIRECTION ( 'NONE',  ( -3.491481338843133355E-15, 1.224646799147353207E-16, -1.000000000000000000 ) ) ;
#3 = FACE_OUTER_BOUND ( 'NONE', #113, .T. ) ;
#4 = FACE_BOUND ( 'NONE', #54, .T. ) ;
#5 = MANIFOLD_SOLID_BREP ( 'Corps-Déplacer/Copier1[1]', #6 ) ;
#6 = CLOSED_SHELL ( 'NONE', ( #126, #94, #88, #109 ) ) ;
#7 = FACE_OUTER_BOUND ( 'NONE', #171, .T. ) ;
#8 =( LENGTH_UNIT ( ) NAMED_UNIT ( * ) SI_UNIT ( .MILLI., .METRE. ) );
#9 = DIRECTION ( 'NONE',  ( 3.668437989309036103E-31, 1.000000000000000000, 1.032573497605246662E-16 ) ) ;
#10 = DIRECTION ( 'NONE',  ( 1.000000000000000000, 0.0000000000000000000, 0.0000000000000000000 ) ) ;
#11 = CC_DESIGN_PERSON_AND_ORGANIZATION_ASSIGNMENT ( #112, #45, ( #52 ) ) ;
#12 = VERTEX_POINT ( 'NONE', #122 ) ;
#13 = APPROVAL_PERSON_ORGANIZATION ( #130, #60, #184 ) ;
#14 = APPROVAL_ROLE ( '' ) ;
#15 = DATE_AND_TIME ( #172, #27 ) ;
#16 = DIRECTION ( 'NONE',  ( -3.491481338843133355E-15, 1.224646799147353207E-16, -1.000000000000000000 ) ) ;
#17 = ADVANCED_FACE ( 'NONE', ( #7, #178 ), #161, .T. ) ;
#18 = CIRCLE ( 'NONE', #35, 1.049999999999997158 ) ;
#19 = CC_DESIGN_APPROVAL ( #175, ( #52 ) ) ;
#20 = DIRECTION ( 'NONE',  ( 0.0000000000000000000, 1.000000000000000000, 0.0000000000000000000 ) ) ;
#21 = CC_DESIGN_PERSON_AND_ORGANIZATION_ASSIGNMENT ( #65, #68, ( #107 ) ) ;
#22 = CARTESIAN_POINT ( 'NONE',  ( 4.189777606611760026E-14, 1.049999999999995604, 12.00000000000000000 ) ) ;
#23 = DIRECTION ( 'NONE',  ( 3.491481338843133355E-15, -1.224646799147353207E-16, 1.000000000000000000 ) ) ;
#24 =( NAMED_UNIT ( * ) SI_UNIT ( $, .STERADIAN. ) SOLID_ANGLE_UNIT ( ) );
#25 = AXIS2_PLACEMENT_3D ( 'NONE', #89, #2, #192 ) ;
#26 = DATE_TIME_ROLE ( 'creation_date' ) ;
#27 = LOCAL_TIME ( 15, 34, 29.00000000000000000, #111 ) ;
#28 = PERSON_AND_ORGANIZATION ( #193, #69 ) ;
#29 = EDGE_LOOP ( 'NONE', ( #190 ) ) ;
#30 = COORDINATED_UNIVERSAL_TIME_OFFSET ( 1, 0, .AHEAD. ) ;
#31 = APPROVAL_STATUS ( 'not_yet_approved' ) ;
#32 = CLOSED_SHELL ( 'NONE', ( #115, #17, #33 ) ) ;
#33 = ADVANCED_FACE ( 'NONE', ( #136 ), #101, .T. ) ;
#34 = EDGE_LOOP ( 'NONE', ( #71 ) ) ;
#35 = AXIS2_PLACEMENT_3D ( 'NONE', #162, #179, #182 ) ;
#36 = DIRECTION ( 'NONE',  ( 4.275831445896958607E-31, 1.000000000000000000, 1.224646799147353207E-16 ) ) ;
#37 = AXIS2_PLACEMENT_3D ( 'NONE', #38, #137, #9 ) ;
#38 = CARTESIAN_POINT ( 'NONE',  ( 1.334335044876561618E-15, -4.680217314979720844E-17, 0.3821687459795158892 ) ) ;
#39 = CC_DESIGN_PERSON_AND_ORGANIZATION_ASSIGNMENT ( #49, #127, ( #121 ) ) ;
#40 = PRODUCT_DEFINITION_SHAPE ( 'NONE', 'NONE',  #52 ) ;
#41 = DIRECTION ( 'NONE',  ( 0.0000000000000000000, 0.0000000000000000000, 1.000000000000000000 ) ) ;
#42 = AXIS2_PLACEMENT_3D ( 'NONE', #180, #120, #103 ) ;
#43 = DIRECTION ( 'NONE',  ( -4.275831445896958607E-31, -1.000000000000000000, -1.224646799147353207E-16 ) ) ;
#44 = PERSON_AND_ORGANIZATION ( #193, #69 ) ;
#45 = PERSON_AND_ORGANIZATION_ROLE ( 'creator' ) ;
#46 = ORIENTED_EDGE ( 'NONE', *, *, #145, .T. ) ;
#47 = CIRCLE ( 'NONE', #114, 1.050000000000000044 ) ;
#48 = LOCAL_TIME ( 15, 34, 29.00000000000000000, #84 ) ;
#49 = PERSON_AND_ORGANIZATION ( #193, #69 ) ;
#50 = ADVANCED_BREP_SHAPE_REPRESENTATION ( '31581', ( #5, #79, #186 ), #156 ) ;
#51 = COORDINATED_UNIVERSAL_TIME_OFFSET ( 1, 0, .AHEAD. ) ;
#52 = PRODUCT_DEFINITION ( 'UNKNOWN', '', #107, #76 ) ;
#53 = DATE_AND_TIME ( #174, #92 ) ;
#54 = EDGE_LOOP ( 'NONE', ( #131 ) ) ;
#55 = EDGE_LOOP ( 'NONE', ( #173 ) ) ;
#56 = DIRECTION ( 'NONE',  ( -4.275831445896958607E-31, -1.000000000000000000, -1.224646799147353207E-16 ) ) ;
#57 = EDGE_CURVE ( 'NONE', #166, #166, #118, .T. ) ;
#58 = CC_DESIGN_APPROVAL ( #82, ( #107 ) ) ;
#59 = DIRECTION ( 'NONE',  ( -3.491481338843133355E-15, 1.224646799147353207E-16, -1.000000000000000000 ) ) ;
#60 = APPROVAL ( #31, 'UNSPECIFIED' ) ;
#61 = CARTESIAN_POINT ( 'NONE',  ( 1.326762908760390423E-13, -4.653657836759941941E-15, 38.00000000000000000 ) ) ;
#62 = PLANE ( 'NONE',  #132 ) ;
#63 = CIRCLE ( 'NONE', #183, 0.7000000000000001776 ) ;
#64 = APPROVAL_STATUS ( 'not_yet_approved' ) ;
#65 = PERSON_AND_ORGANIZATION ( #193, #69 ) ;
#66 = ORIENTED_EDGE ( 'NONE', *, *, #145, .F. ) ;
#67 = PRODUCT ( '31581', '31581', '', ( #168 ) ) ;
#68 = PERSON_AND_ORGANIZATION_ROLE ( 'design_supplier' ) ;
#69 = ORGANIZATION ( 'UNSPECIFIED', 'UNSPECIFIED', '' ) ;
#70 = APPROVAL_DATE_TIME ( #53, #82 ) ;
#71 = ORIENTED_EDGE ( 'NONE', *, *, #165, .F. ) ;
#72 = EDGE_LOOP ( 'NONE', ( #191 ) ) ;
#73 = EDGE_LOOP ( 'NONE', ( #116 ) ) ;
#74 = CARTESIAN_POINT ( 'NONE',  ( 0.0000000000000000000, 0.0000000000000000000, 0.0000000000000000000 ) ) ;
#75 = CARTESIAN_POINT ( 'NONE',  ( 1.326762908760390423E-13, 5.249159239316433205E-33, 38.00000000000000000 ) ) ;
#76 = DESIGN_CONTEXT ( 'detailed design', #197, 'design' ) ;
#77 =( NAMED_UNIT ( * ) PLANE_ANGLE_UNIT ( ) SI_UNIT ( $, .RADIAN. ) );
#78 = APPLICATION_PROTOCOL_DEFINITION ( 'international standard', 'config_control_design', 1994, #167 ) ;
#79 = MANIFOLD_SOLID_BREP ( 'Corps-Déplacer/Copier1[2]', #32 ) ;
#80 = PERSON_AND_ORGANIZATION ( #193, #69 ) ;
#81 = EDGE_CURVE ( 'NONE', #169, #169, #18, .T. ) ;
#82 = APPROVAL ( #185, 'UNSPECIFIED' ) ;
#83 = AXIS2_PLACEMENT_3D ( 'NONE', #147, #177, #20 ) ;
#84 = COORDINATED_UNIVERSAL_TIME_OFFSET ( 1, 0, .AHEAD. ) ;
#85 = ORIENTED_EDGE ( 'NONE', *, *, #81, .F. ) ;
#86 = AXIS2_PLACEMENT_3D ( 'NONE', #87, #134, #56 ) ;
#87 = CARTESIAN_POINT ( 'NONE',  ( 4.189777606611760026E-14, 7.873738858974708651E-33, 12.00000000000000000 ) ) ;
#88 = ADVANCED_FACE ( 'NONE', ( #148, #4 ), #149, .T. ) ;
#89 = CARTESIAN_POINT ( 'NONE',  ( 0.0000000000000000000, 0.0000000000000000000, 0.0000000000000000000 ) ) ;
#90 = CARTESIAN_POINT ( 'NONE',  ( 4.189777606611760026E-14, 1.049999999999995604, 12.00000000000000000 ) ) ;
#91 = AXIS2_PLACEMENT_3D ( 'NONE', #74, #16, #150 ) ;
#92 = LOCAL_TIME ( 15, 34, 29.00000000000000000, #51 ) ;
#93 = FACE_OUTER_BOUND ( 'NONE', #129, .T. ) ;
#94 = ADVANCED_FACE ( 'NONE', ( #3, #100 ), #146, .T. ) ;
#95 = APPROVAL_DATE_TIME ( #202, #60 ) ;
#96 = PERSON_AND_ORGANIZATION_ROLE ( 'design_owner' ) ;
#97 = COORDINATED_UNIVERSAL_TIME_OFFSET ( 1, 0, .AHEAD. ) ;
#98 = AXIS2_PLACEMENT_3D ( 'NONE', #163, #194, #1 ) ;
#99 = EDGE_LOOP ( 'NONE', ( #46 ) ) ;
#100 = FACE_OUTER_BOUND ( 'NONE', #55, .T. ) ;
#101 = PLANE ( 'NONE',  #86 ) ;
#102 = APPROVAL_PERSON_ORGANIZATION ( #44, #82, #143 ) ;
#103 = DIRECTION ( 'NONE',  ( 0.0000000000000000000, 1.000000000000000000, 0.0000000000000000000 ) ) ;
#104 = PRODUCT_RELATED_PRODUCT_CATEGORY ( 'detail', '', ( #67 ) ) ;
#105 = DIRECTION ( 'NONE',  ( -3.491481338843133355E-15, 1.224646799147353207E-16, -1.000000000000000000 ) ) ;
#106 = FACE_OUTER_BOUND ( 'NONE', #99, .T. ) ;
#107 = PRODUCT_DEFINITION_FORMATION_WITH_SPECIFIED_SOURCE ( 'ANY', '', #67, .NOT_KNOWN. ) ;
#108 = DIRECTION ( 'NONE',  ( 0.0000000000000000000, 1.000000000000000000, 0.0000000000000000000 ) ) ;
#109 = ADVANCED_FACE ( 'NONE', ( #135 ), #119, .F. ) ;
#110 = CALENDAR_DATE ( 2021, 15, 10 ) ;
#111 = COORDINATED_UNIVERSAL_TIME_OFFSET ( 1, 0, .AHEAD. ) ;
#112 = PERSON_AND_ORGANIZATION ( #193, #69 ) ;
#113 = EDGE_LOOP ( 'NONE', ( #85 ) ) ;
#114 = AXIS2_PLACEMENT_3D ( 'NONE', #133, #59, #108 ) ;
#115 = ADVANCED_FACE ( 'NONE', ( #106 ), #138, .T. ) ;
#116 = ORIENTED_EDGE ( 'NONE', *, *, #57, .T. ) ;
#117 = EDGE_CURVE ( 'NONE', #155, #155, #47, .T. ) ;
#118 = CIRCLE ( 'NONE', #42, 1.049999999999997158 ) ;
#119 = PLANE ( 'NONE',  #125 ) ;
#120 = DIRECTION ( 'NONE',  ( -3.491481338843133355E-15, 1.224646799147353207E-16, -1.000000000000000000 ) ) ;
#121 = SECURITY_CLASSIFICATION ( '', '', #128 ) ;
#122 = CARTESIAN_POINT ( 'NONE',  ( 1.326762908760390423E-13, 0.6999999999999955147, 38.00000000000000000 ) ) ;
#123 = CARTESIAN_POINT ( 'NONE',  ( 4.189777606611760026E-14, 7.873738858974708651E-33, 12.00000000000000000 ) ) ;
#124 = CARTESIAN_POINT ( 'NONE',  ( 0.0000000000000000000, 0.0000000000000000000, 0.0000000000000000000 ) ) ;
#125 = AXIS2_PLACEMENT_3D ( 'NONE', #75, #105, #36 ) ;
#126 = ADVANCED_FACE ( 'NONE', ( #93 ), #62, .F. ) ;
#127 = PERSON_AND_ORGANIZATION_ROLE ( 'classification_officer' ) ;
#128 = SECURITY_CLASSIFICATION_LEVEL ( 'unclassified' ) ;
#129 = EDGE_LOOP ( 'NONE', ( #188 ) ) ;
#130 = PERSON_AND_ORGANIZATION ( #193, #69 ) ;
#131 = ORIENTED_EDGE ( 'NONE', *, *, #165, .T. ) ;
#132 = AXIS2_PLACEMENT_3D ( 'NONE', #123, #23, #43 ) ;
#133 = CARTESIAN_POINT ( 'NONE',  ( 1.314542724074439550E-13, -4.610795198789784797E-15, 37.64999999999999858 ) ) ;
#134 = DIRECTION ( 'NONE',  ( 3.491481338843133355E-15, -1.224646799147353207E-16, 1.000000000000000000 ) ) ;
#135 = FACE_OUTER_BOUND ( 'NONE', #34, .T. ) ;
#136 = FACE_OUTER_BOUND ( 'NONE', #72, .T. ) ;
#137 = DIRECTION ( 'NONE',  ( -3.491481338843133355E-15, 1.224646799147353207E-16, -1.000000000000000000 ) ) ;
#138 = CONICAL_SURFACE ( 'NONE', #98, 1.049999999999995604, 1.221730476396026388 ) ;
#139 = CARTESIAN_POINT ( 'NONE',  ( 1.314542724074439550E-13, 1.049999999999995604, 37.64999999999999858 ) ) ;
#140 = CC_DESIGN_PERSON_AND_ORGANIZATION_ASSIGNMENT ( #80, #142, ( #107 ) ) ;
#141 = DIRECTION ( 'NONE',  ( -3.491481338843133355E-15, 1.224646799147353207E-16, -1.000000000000000000 ) ) ;
#142 = PERSON_AND_ORGANIZATION_ROLE ( 'creator' ) ;
#143 = APPROVAL_ROLE ( '' ) ;
#144 = CC_DESIGN_DATE_AND_TIME_ASSIGNMENT ( #15, #187, ( #121 ) ) ;
#145 = EDGE_CURVE ( 'NONE', #152, #152, #153, .T. ) ;
#146 = CYLINDRICAL_SURFACE ( 'NONE', #91, 1.049999999999998712 ) ;
#147 = CARTESIAN_POINT ( 'NONE',  ( 1.326762908760390423E-13, -4.653657836759941941E-15, 38.00000000000000000 ) ) ;
#148 = FACE_OUTER_BOUND ( 'NONE', #29, .T. ) ;
#149 = CONICAL_SURFACE ( 'NONE', #83, 0.7000000000000001776, 0.7853981633974438381 ) ;
#150 = DIRECTION ( 'NONE',  ( 4.275831445896957731E-31, 1.000000000000000000, 1.224646799147353207E-16 ) ) ;
#151 = UNCERTAINTY_MEASURE_WITH_UNIT (LENGTH_MEASURE( 1.000000000000000082E-05 ), #8, 'distance_accuracy_value', 'NONE');
#152 = VERTEX_POINT ( 'NONE', #196 ) ;
#153 = CIRCLE ( 'NONE', #37, 1.049999999999995604 ) ;
#154 = DIRECTION ( 'NONE',  ( 0.0000000000000000000, 1.000000000000000000, 0.0000000000000000000 ) ) ;
#155 = VERTEX_POINT ( 'NONE', #139 ) ;
#156 =( GEOMETRIC_REPRESENTATION_CONTEXT ( 3 ) GLOBAL_UNCERTAINTY_ASSIGNED_CONTEXT ( ( #151 ) ) GLOBAL_UNIT_ASSIGNED_CONTEXT ( ( #8, #77, #24 ) ) REPRESENTATION_CONTEXT ( 'NONE', 'WORKASPACE' ) );
#157 = LOCAL_TIME ( 15, 34, 29.00000000000000000, #97 ) ;
#158 = APPLICATION_PROTOCOL_DEFINITION ( 'international standard', 'config_control_design', 1994, #197 ) ;
#159 = DATE_AND_TIME ( #176, #195 ) ;
#160 = CC_DESIGN_PERSON_AND_ORGANIZATION_ASSIGNMENT ( #28, #96, ( #67 ) ) ;
#161 = CYLINDRICAL_SURFACE ( 'NONE', #25, 1.049999999999996270 ) ;
#162 = CARTESIAN_POINT ( 'NONE',  ( 4.189777606611760026E-14, -1.469576158976823947E-15, 12.00000000000000000 ) ) ;
#163 = CARTESIAN_POINT ( 'NONE',  ( 1.334335044876561618E-15, -4.680217314979720844E-17, 0.3821687459795158892 ) ) ;
#164 = CC_DESIGN_SECURITY_CLASSIFICATION ( #121, ( #107 ) ) ;
#165 = EDGE_CURVE ( 'NONE', #12, #12, #63, .T. ) ;
#166 = VERTEX_POINT ( 'NONE', #22 ) ;
#167 = APPLICATION_CONTEXT ( 'configuration controlled 3d designs of mechanical parts and assemblies' ) ;
#168 = MECHANICAL_CONTEXT ( 'NONE', #167, 'mechanical' ) ;
#169 = VERTEX_POINT ( 'NONE', #90 ) ;
#170 = SHAPE_DEFINITION_REPRESENTATION ( #40, #50 ) ;
#171 = EDGE_LOOP ( 'NONE', ( #66 ) ) ;
#172 = CALENDAR_DATE ( 2021, 15, 10 ) ;
#173 = ORIENTED_EDGE ( 'NONE', *, *, #117, .T. ) ;
#174 = CALENDAR_DATE ( 2021, 15, 10 ) ;
#175 = APPROVAL ( #64, 'UNSPECIFIED' ) ;
#176 = CALENDAR_DATE ( 2021, 15, 10 ) ;
#177 = DIRECTION ( 'NONE',  ( -3.491481338843133355E-15, 1.224646799147353207E-16, -1.000000000000000000 ) ) ;
#178 = FACE_OUTER_BOUND ( 'NONE', #73, .T. ) ;
#179 = DIRECTION ( 'NONE',  ( -3.491481338843133355E-15, 1.224646799147353207E-16, -1.000000000000000000 ) ) ;
#180 = CARTESIAN_POINT ( 'NONE',  ( 4.189777606611760026E-14, -1.469576158976823947E-15, 12.00000000000000000 ) ) ;
#181 = CC_DESIGN_DATE_AND_TIME_ASSIGNMENT ( #159, #26, ( #52 ) ) ;
#182 = DIRECTION ( 'NONE',  ( 0.0000000000000000000, 1.000000000000000000, 0.0000000000000000000 ) ) ;
#183 = AXIS2_PLACEMENT_3D ( 'NONE', #61, #141, #154 ) ;
#184 = APPROVAL_ROLE ( '' ) ;
#185 = APPROVAL_STATUS ( 'not_yet_approved' ) ;
#186 = AXIS2_PLACEMENT_3D ( 'NONE', #124, #41, #10 ) ;
#187 = DATE_TIME_ROLE ( 'classification_date' ) ;
#188 = ORIENTED_EDGE ( 'NONE', *, *, #81, .T. ) ;
#189 = CC_DESIGN_APPROVAL ( #60, ( #121 ) ) ;
#190 = ORIENTED_EDGE ( 'NONE', *, *, #117, .F. ) ;
#191 = ORIENTED_EDGE ( 'NONE', *, *, #57, .F. ) ;
#192 = DIRECTION ( 'NONE',  ( 4.275831445896958607E-31, 1.000000000000000000, 1.224646799147353207E-16 ) ) ;
#193 = PERSON ( 'UNSPECIFIED', 'UNSPECIFIED', 'UNSPECIFIED', ('UNSPECIFIED'), ('UNSPECIFIED'), ('UNSPECIFIED') ) ;
#194 = DIRECTION ( 'NONE',  ( 3.491481338843133355E-15, -1.224646799147353207E-16, 1.000000000000000000 ) ) ;
#195 = LOCAL_TIME ( 15, 34, 29.00000000000000000, #30 ) ;
#196 = CARTESIAN_POINT ( 'NONE',  ( 1.334335044876562013E-15, 1.049999999999995604, 0.3821687459795160002 ) ) ;
#197 = APPLICATION_CONTEXT ( 'configuration controlled 3d designs of mechanical parts and assemblies' ) ;
#198 = DATE_AND_TIME ( #203, #48 ) ;
#199 = PERSON_AND_ORGANIZATION ( #193, #69 ) ;
#200 = APPROVAL_DATE_TIME ( #198, #175 ) ;
#201 = APPROVAL_PERSON_ORGANIZATION ( #199, #175, #14 ) ;
#202 = DATE_AND_TIME ( #110, #157 ) ;
#203 = CALENDAR_DATE ( 2021, 15, 10 ) ;
ENDSEC;
END-ISO-10303-21;
