ISO-10303-21;
HEADER;
FILE_DESCRIPTION (( 'STEP AP203' ),
    '1' );
FILE_NAME ('31580.step',
    '2021-10-15T13:34:28',
    ( '' ),
    ( '' ),
    'SwSTEP 2.0',
    'SolidWorks 2019',
    '' );
FILE_SCHEMA (( 'CONFIG_CONTROL_DESIGN' ));
ENDSEC;

DATA;
#1 = CARTESIAN_POINT ( 'NONE',  ( 0.0000000000000000000, 0.0000000000000000000, 0.0000000000000000000 ) ) ;
#2 = APPROVAL_DATE_TIME ( #42, #25 ) ;
#3 = CARTESIAN_POINT ( 'NONE',  ( 1.270795280834820457E-15, 0.9999999999999954481, 0.3639702342662055612 ) ) ;
#4 = ORIENTED_EDGE ( 'NONE', *, *, #168, .T. ) ;
#5 = COORDINATED_UNIVERSAL_TIME_OFFSET ( 1, 0, .AHEAD. ) ;
#6 = DATE_AND_TIME ( #93, #169 ) ;
#7 = APPROVAL_DATE_TIME ( #99, #142 ) ;
#8 = CC_DESIGN_PERSON_AND_ORGANIZATION_ASSIGNMENT ( #171, #53, ( #64 ) ) ;
#9 = DIRECTION ( 'NONE',  ( 4.275831445896958607E-31, 1.000000000000000000, 1.224646799147353207E-16 ) ) ;
#10 = AXIS2_PLACEMENT_3D ( 'NONE', #46, #140, #9 ) ;
#11 = CALENDAR_DATE ( 2021, 15, 10 ) ;
#12 = FACE_OUTER_BOUND ( 'NONE', #73, .T. ) ;
#13 = DESIGN_CONTEXT ( 'detailed design', #154, 'design' ) ;
#14 = DIRECTION ( 'NONE',  ( -3.491481338843133355E-15, 1.224646799147353207E-16, -1.000000000000000000 ) ) ;
#15 = ADVANCED_FACE ( 'NONE', ( #41, #160 ), #51, .T. ) ;
#16 = CIRCLE ( 'NONE', #65, 0.9999999999999970024 ) ;
#17 = PERSON ( 'UNSPECIFIED', 'UNSPECIFIED', 'UNSPECIFIED', ('UNSPECIFIED'), ('UNSPECIFIED'), ('UNSPECIFIED') ) ;
#18 = FACE_OUTER_BOUND ( 'NONE', #54, .T. ) ;
#19 = CARTESIAN_POINT ( 'NONE',  ( 1.326762908760390423E-13, -4.653657836759941941E-15, 38.00000000000000000 ) ) ;
#20 = CIRCLE ( 'NONE', #180, 1.000000000000000000 ) ;
#21 = COORDINATED_UNIVERSAL_TIME_OFFSET ( 1, 0, .AHEAD. ) ;
#22 = SECURITY_CLASSIFICATION_LEVEL ( 'unclassified' ) ;
#23 = EDGE_LOOP ( 'NONE', ( #35 ) ) ;
#24 = DATE_AND_TIME ( #52, #34 ) ;
#25 = APPROVAL ( #144, 'UNSPECIFIED' ) ;
#26 = ADVANCED_FACE ( 'NONE', ( #18, #105 ), #130, .T. ) ;
#27 = AXIS2_PLACEMENT_3D ( 'NONE', #101, #50, #173 ) ;
#28 = DIRECTION ( 'NONE',  ( -3.851859888774489222E-31, -1.000000000000000000, -1.084202172485509364E-16 ) ) ;
#29 = FACE_OUTER_BOUND ( 'NONE', #77, .T. ) ;
#30 = CYLINDRICAL_SURFACE ( 'NONE', #10, 0.9999999999999985567 ) ;
#31 = DIRECTION ( 'NONE',  ( 4.275831445896958607E-31, 1.000000000000000000, 1.224646799147353207E-16 ) ) ;
#32 = CARTESIAN_POINT ( 'NONE',  ( 1.314542724074439550E-13, -4.610795198789784797E-15, 37.64999999999999858 ) ) ;
#33 = APPROVAL_STATUS ( 'not_yet_approved' ) ;
#34 = LOCAL_TIME ( 15, 34, 28.00000000000000000, #5 ) ;
#35 = ORIENTED_EDGE ( 'NONE', *, *, #133, .T. ) ;
#36 = EDGE_LOOP ( 'NONE', ( #38 ) ) ;
#37 = CIRCLE ( 'NONE', #189, 0.9999999999999970024 ) ;
#38 = ORIENTED_EDGE ( 'NONE', *, *, #155, .T. ) ;
#39 = PERSON_AND_ORGANIZATION ( #17, #95 ) ;
#40 = ADVANCED_FACE ( 'NONE', ( #29 ), #49, .F. ) ;
#41 = FACE_OUTER_BOUND ( 'NONE', #182, .T. ) ;
#42 = DATE_AND_TIME ( #162, #157 ) ;
#43 = CIRCLE ( 'NONE', #118, 0.9999999999999954481 ) ;
#44 = EDGE_CURVE ( 'NONE', #86, #86, #37, .T. ) ;
#45 = PRODUCT_DEFINITION_FORMATION_WITH_SPECIFIED_SOURCE ( 'ANY', '', #192, .NOT_KNOWN. ) ;
#46 = CARTESIAN_POINT ( 'NONE',  ( 0.0000000000000000000, 0.0000000000000000000, 0.0000000000000000000 ) ) ;
#47 = VERTEX_POINT ( 'NONE', #3 ) ;
#48 = AXIS2_PLACEMENT_3D ( 'NONE', #187, #139, #31 ) ;
#49 = PLANE ( 'NONE',  #48 ) ;
#50 = DIRECTION ( 'NONE',  ( 0.0000000000000000000, 0.0000000000000000000, 1.000000000000000000 ) ) ;
#51 = CONICAL_SURFACE ( 'NONE', #195, 0.6500000000000001332, 0.7853981633974438381 ) ;
#52 = CALENDAR_DATE ( 2021, 15, 10 ) ;
#53 = PERSON_AND_ORGANIZATION_ROLE ( 'creator' ) ;
#54 = EDGE_LOOP ( 'NONE', ( #176 ) ) ;
#55 = DATE_AND_TIME ( #191, #175 ) ;
#56 = ORIENTED_EDGE ( 'NONE', *, *, #133, .F. ) ;
#57 = APPROVAL_PERSON_ORGANIZATION ( #60, #203, #146 ) ;
#58 = VERTEX_POINT ( 'NONE', #134 ) ;
#59 = ORIENTED_EDGE ( 'NONE', *, *, #141, .T. ) ;
#60 = PERSON_AND_ORGANIZATION ( #17, #95 ) ;
#61 = APPROVAL_STATUS ( 'not_yet_approved' ) ;
#62 = CC_DESIGN_PERSON_AND_ORGANIZATION_ASSIGNMENT ( #94, #181, ( #192 ) ) ;
#63 = APPLICATION_PROTOCOL_DEFINITION ( 'international standard', 'config_control_design', 1994, #143 ) ;
#64 = PRODUCT_DEFINITION ( 'UNKNOWN', '', #45, #13 ) ;
#65 = AXIS2_PLACEMENT_3D ( 'NONE', #156, #14, #69 ) ;
#66 = CARTESIAN_POINT ( 'NONE',  ( 4.189777606611760026E-14, 7.498798913309241512E-33, 12.00000000000000000 ) ) ;
#67 =( NAMED_UNIT ( * ) PLANE_ANGLE_UNIT ( ) SI_UNIT ( $, .RADIAN. ) );
#68 = VERTEX_POINT ( 'NONE', #123 ) ;
#69 = DIRECTION ( 'NONE',  ( 0.0000000000000000000, 1.000000000000000000, 0.0000000000000000000 ) ) ;
#70 = AXIS2_PLACEMENT_3D ( 'NONE', #172, #84, #109 ) ;
#71 = DIRECTION ( 'NONE',  ( -4.275831445896958607E-31, -1.000000000000000000, -1.224646799147353207E-16 ) ) ;
#72 = MECHANICAL_CONTEXT ( 'NONE', #143, 'mechanical' ) ;
#73 = EDGE_LOOP ( 'NONE', ( #59 ) ) ;
#74 = PERSON_AND_ORGANIZATION_ROLE ( 'classification_officer' ) ;
#75 = CLOSED_SHELL ( 'NONE', ( #87, #26, #96 ) ) ;
#76 = CC_DESIGN_PERSON_AND_ORGANIZATION_ASSIGNMENT ( #129, #165, ( #45 ) ) ;
#77 = EDGE_LOOP ( 'NONE', ( #56 ) ) ;
#78 = CC_DESIGN_APPROVAL ( #25, ( #45 ) ) ;
#79 = CC_DESIGN_PERSON_AND_ORGANIZATION_ASSIGNMENT ( #166, #177, ( #45 ) ) ;
#80 = APPROVAL_DATE_TIME ( #6, #203 ) ;
#81 = SHAPE_DEFINITION_REPRESENTATION ( #128, #179 ) ;
#82 = DIRECTION ( 'NONE',  ( 0.0000000000000000000, 1.000000000000000000, 0.0000000000000000000 ) ) ;
#83 = AXIS2_PLACEMENT_3D ( 'NONE', #152, #120, #28 ) ;
#84 = DIRECTION ( 'NONE',  ( -3.491481338843133355E-15, 1.224646799147353207E-16, -1.000000000000000000 ) ) ;
#85 = APPROVAL_ROLE ( '' ) ;
#86 = VERTEX_POINT ( 'NONE', #98 ) ;
#87 = ADVANCED_FACE ( 'NONE', ( #111 ), #107, .T. ) ;
#88 = DIRECTION ( 'NONE',  ( -3.491481338843133355E-15, 1.224646799147353207E-16, -1.000000000000000000 ) ) ;
#89 = DATE_TIME_ROLE ( 'classification_date' ) ;
#90 = EDGE_LOOP ( 'NONE', ( #116 ) ) ;
#91 = CLOSED_SHELL ( 'NONE', ( #188, #108, #15, #40 ) ) ;
#92 = APPROVAL_ROLE ( '' ) ;
#93 = CALENDAR_DATE ( 2021, 15, 10 ) ;
#94 = PERSON_AND_ORGANIZATION ( #17, #95 ) ;
#95 = ORGANIZATION ( 'UNSPECIFIED', 'UNSPECIFIED', '' ) ;
#96 = ADVANCED_FACE ( 'NONE', ( #202 ), #114, .T. ) ;
#97 = DIRECTION ( 'NONE',  ( -3.491481338843133355E-15, 1.224646799147353207E-16, -1.000000000000000000 ) ) ;
#98 = CARTESIAN_POINT ( 'NONE',  ( 4.189777606611760026E-14, 0.9999999999999954481, 12.00000000000000000 ) ) ;
#99 = DATE_AND_TIME ( #11, #126 ) ;
#100 = UNCERTAINTY_MEASURE_WITH_UNIT (LENGTH_MEASURE( 1.000000000000000082E-05 ), #135, 'distance_accuracy_value', 'NONE');
#101 = CARTESIAN_POINT ( 'NONE',  ( 0.0000000000000000000, 0.0000000000000000000, 0.0000000000000000000 ) ) ;
#102 = DIRECTION ( 'NONE',  ( 3.851859888774489222E-31, 1.000000000000000000, 1.084202172485509364E-16 ) ) ;
#103 = ORIENTED_EDGE ( 'NONE', *, *, #168, .F. ) ;
#104 = EDGE_LOOP ( 'NONE', ( #4 ) ) ;
#105 = FACE_OUTER_BOUND ( 'NONE', #104, .T. ) ;
#106 = DATE_TIME_ROLE ( 'creation_date' ) ;
#107 = CONICAL_SURFACE ( 'NONE', #83, 0.9999999999999954481, 1.221730476396026388 ) ;
#108 = ADVANCED_FACE ( 'NONE', ( #153, #12 ), #30, .T. ) ;
#109 = DIRECTION ( 'NONE',  ( 0.0000000000000000000, 1.000000000000000000, 0.0000000000000000000 ) ) ;
#110 = APPROVAL_PERSON_ORGANIZATION ( #39, #25, #92 ) ;
#111 = FACE_OUTER_BOUND ( 'NONE', #36, .T. ) ;
#112 = PRODUCT_RELATED_PRODUCT_CATEGORY ( 'detail', '', ( #192 ) ) ;
#113 = CARTESIAN_POINT ( 'NONE',  ( 4.189777606611760026E-14, 7.498798913309241512E-33, 12.00000000000000000 ) ) ;
#114 = PLANE ( 'NONE',  #184 ) ;
#115 = CC_DESIGN_SECURITY_CLASSIFICATION ( #121, ( #45 ) ) ;
#116 = ORIENTED_EDGE ( 'NONE', *, *, #44, .T. ) ;
#117 = COORDINATED_UNIVERSAL_TIME_OFFSET ( 1, 0, .AHEAD. ) ;
#118 = AXIS2_PLACEMENT_3D ( 'NONE', #137, #199, #102 ) ;
#119 = CC_DESIGN_APPROVAL ( #142, ( #121 ) ) ;
#120 = DIRECTION ( 'NONE',  ( 3.491481338843133355E-15, -1.224646799147353207E-16, 1.000000000000000000 ) ) ;
#121 = SECURITY_CLASSIFICATION ( '', '', #22 ) ;
#122 = DIRECTION ( 'NONE',  ( 3.491481338843133355E-15, -1.224646799147353207E-16, 1.000000000000000000 ) ) ;
#123 = CARTESIAN_POINT ( 'NONE',  ( 1.314542724074439550E-13, 0.9999999999999954481, 37.64999999999999858 ) ) ;
#124 = MANIFOLD_SOLID_BREP ( 'Corps-Déplacer/Copier1[2]', #75 ) ;
#125 = FACE_OUTER_BOUND ( 'NONE', #90, .T. ) ;
#126 = LOCAL_TIME ( 15, 34, 28.00000000000000000, #151 ) ;
#127 = PLANE ( 'NONE',  #136 ) ;
#128 = PRODUCT_DEFINITION_SHAPE ( 'NONE', 'NONE',  #64 ) ;
#129 = PERSON_AND_ORGANIZATION ( #17, #95 ) ;
#130 = CYLINDRICAL_SURFACE ( 'NONE', #148, 0.9999999999999961142 ) ;
#131 = COORDINATED_UNIVERSAL_TIME_OFFSET ( 1, 0, .AHEAD. ) ;
#132 = EDGE_LOOP ( 'NONE', ( #103 ) ) ;
#133 = EDGE_CURVE ( 'NONE', #138, #138, #150, .T. ) ;
#134 = CARTESIAN_POINT ( 'NONE',  ( 4.189777606611760026E-14, 0.9999999999999954481, 12.00000000000000000 ) ) ;
#135 =( LENGTH_UNIT ( ) NAMED_UNIT ( * ) SI_UNIT ( .MILLI., .METRE. ) );
#136 = AXIS2_PLACEMENT_3D ( 'NONE', #66, #122, #186 ) ;
#137 = CARTESIAN_POINT ( 'NONE',  ( 1.270795280834820063E-15, -4.457349823790208215E-17, 0.3639702342662054502 ) ) ;
#138 = VERTEX_POINT ( 'NONE', #200 ) ;
#139 = DIRECTION ( 'NONE',  ( -3.491481338843133355E-15, 1.224646799147353207E-16, -1.000000000000000000 ) ) ;
#140 = DIRECTION ( 'NONE',  ( -3.491481338843133355E-15, 1.224646799147353207E-16, -1.000000000000000000 ) ) ;
#141 = EDGE_CURVE ( 'NONE', #68, #68, #20, .T. ) ;
#142 = APPROVAL ( #33, 'UNSPECIFIED' ) ;
#143 = APPLICATION_CONTEXT ( 'configuration controlled 3d designs of mechanical parts and assemblies' ) ;
#144 = APPROVAL_STATUS ( 'not_yet_approved' ) ;
#145 = ORIENTED_EDGE ( 'NONE', *, *, #44, .F. ) ;
#146 = APPROVAL_ROLE ( '' ) ;
#147 = DIRECTION ( 'NONE',  ( 4.275831445896958607E-31, 1.000000000000000000, 1.224646799147353207E-16 ) ) ;
#148 = AXIS2_PLACEMENT_3D ( 'NONE', #1, #164, #147 ) ;
#149 = PERSON_AND_ORGANIZATION ( #17, #95 ) ;
#150 = CIRCLE ( 'NONE', #70, 0.6500000000000001332 ) ;
#151 = COORDINATED_UNIVERSAL_TIME_OFFSET ( 1, 0, .AHEAD. ) ;
#152 = CARTESIAN_POINT ( 'NONE',  ( 1.270795280834820063E-15, -4.457349823790208215E-17, 0.3639702342662054502 ) ) ;
#153 = FACE_OUTER_BOUND ( 'NONE', #194, .T. ) ;
#154 = APPLICATION_CONTEXT ( 'configuration controlled 3d designs of mechanical parts and assemblies' ) ;
#155 = EDGE_CURVE ( 'NONE', #47, #47, #43, .T. ) ;
#156 = CARTESIAN_POINT ( 'NONE',  ( 4.189777606611760026E-14, -1.469576158976823947E-15, 12.00000000000000000 ) ) ;
#157 = LOCAL_TIME ( 15, 34, 28.00000000000000000, #117 ) ;
#158 = DIRECTION ( 'NONE',  ( 0.0000000000000000000, 1.000000000000000000, 0.0000000000000000000 ) ) ;
#159 = PERSON_AND_ORGANIZATION ( #17, #95 ) ;
#160 = FACE_BOUND ( 'NONE', #23, .T. ) ;
#161 =( GEOMETRIC_REPRESENTATION_CONTEXT ( 3 ) GLOBAL_UNCERTAINTY_ASSIGNED_CONTEXT ( ( #100 ) ) GLOBAL_UNIT_ASSIGNED_CONTEXT ( ( #135, #67, #174 ) ) REPRESENTATION_CONTEXT ( 'NONE', 'WORKASPACE' ) );
#162 = CALENDAR_DATE ( 2021, 15, 10 ) ;
#163 = APPLICATION_PROTOCOL_DEFINITION ( 'international standard', 'config_control_design', 1994, #154 ) ;
#164 = DIRECTION ( 'NONE',  ( -3.491481338843133355E-15, 1.224646799147353207E-16, -1.000000000000000000 ) ) ;
#165 = PERSON_AND_ORGANIZATION_ROLE ( 'creator' ) ;
#166 = PERSON_AND_ORGANIZATION ( #17, #95 ) ;
#167 = APPROVAL_PERSON_ORGANIZATION ( #159, #142, #85 ) ;
#168 = EDGE_CURVE ( 'NONE', #58, #58, #16, .T. ) ;
#169 = LOCAL_TIME ( 15, 34, 28.00000000000000000, #131 ) ;
#170 = CC_DESIGN_DATE_AND_TIME_ASSIGNMENT ( #55, #106, ( #64 ) ) ;
#171 = PERSON_AND_ORGANIZATION ( #17, #95 ) ;
#172 = CARTESIAN_POINT ( 'NONE',  ( 1.326762908760390423E-13, -4.653657836759941941E-15, 38.00000000000000000 ) ) ;
#173 = DIRECTION ( 'NONE',  ( 1.000000000000000000, 0.0000000000000000000, 0.0000000000000000000 ) ) ;
#174 =( NAMED_UNIT ( * ) SI_UNIT ( $, .STERADIAN. ) SOLID_ANGLE_UNIT ( ) );
#175 = LOCAL_TIME ( 15, 34, 28.00000000000000000, #21 ) ;
#176 = ORIENTED_EDGE ( 'NONE', *, *, #155, .F. ) ;
#177 = PERSON_AND_ORGANIZATION_ROLE ( 'design_supplier' ) ;
#178 = ORIENTED_EDGE ( 'NONE', *, *, #141, .F. ) ;
#179 = ADVANCED_BREP_SHAPE_REPRESENTATION ( '31580', ( #196, #124, #27 ), #161 ) ;
#180 = AXIS2_PLACEMENT_3D ( 'NONE', #32, #201, #82 ) ;
#181 = PERSON_AND_ORGANIZATION_ROLE ( 'design_owner' ) ;
#182 = EDGE_LOOP ( 'NONE', ( #178 ) ) ;
#183 = CC_DESIGN_PERSON_AND_ORGANIZATION_ASSIGNMENT ( #149, #74, ( #121 ) ) ;
#184 = AXIS2_PLACEMENT_3D ( 'NONE', #113, #185, #71 ) ;
#185 = DIRECTION ( 'NONE',  ( 3.491481338843133355E-15, -1.224646799147353207E-16, 1.000000000000000000 ) ) ;
#186 = DIRECTION ( 'NONE',  ( -4.275831445896958607E-31, -1.000000000000000000, -1.224646799147353207E-16 ) ) ;
#187 = CARTESIAN_POINT ( 'NONE',  ( 1.326762908760390423E-13, 4.874219293650968118E-33, 38.00000000000000000 ) ) ;
#188 = ADVANCED_FACE ( 'NONE', ( #125 ), #127, .F. ) ;
#189 = AXIS2_PLACEMENT_3D ( 'NONE', #190, #97, #198 ) ;
#190 = CARTESIAN_POINT ( 'NONE',  ( 4.189777606611760026E-14, -1.469576158976823947E-15, 12.00000000000000000 ) ) ;
#191 = CALENDAR_DATE ( 2021, 15, 10 ) ;
#192 = PRODUCT ( '31580', '31580', '', ( #72 ) ) ;
#193 = CC_DESIGN_APPROVAL ( #203, ( #64 ) ) ;
#194 = EDGE_LOOP ( 'NONE', ( #145 ) ) ;
#195 = AXIS2_PLACEMENT_3D ( 'NONE', #19, #88, #158 ) ;
#196 = MANIFOLD_SOLID_BREP ( 'Corps-Déplacer/Copier1[1]', #91 ) ;
#197 = CC_DESIGN_DATE_AND_TIME_ASSIGNMENT ( #24, #89, ( #121 ) ) ;
#198 = DIRECTION ( 'NONE',  ( 0.0000000000000000000, 1.000000000000000000, 0.0000000000000000000 ) ) ;
#199 = DIRECTION ( 'NONE',  ( -3.491481338843133355E-15, 1.224646799147353207E-16, -1.000000000000000000 ) ) ;
#200 = CARTESIAN_POINT ( 'NONE',  ( 1.326762908760390423E-13, 0.6499999999999954703, 38.00000000000000000 ) ) ;
#201 = DIRECTION ( 'NONE',  ( -3.491481338843133355E-15, 1.224646799147353207E-16, -1.000000000000000000 ) ) ;
#202 = FACE_OUTER_BOUND ( 'NONE', #132, .T. ) ;
#203 = APPROVAL ( #61, 'UNSPECIFIED' ) ;
ENDSEC;
END-ISO-10303-21;
