ISO-10303-21;
HEADER;
FILE_DESCRIPTION (( 'STEP AP203' ),
    '1' );
FILE_NAME ('31579.step',
    '2021-10-15T13:34:28',
    ( '' ),
    ( '' ),
    'SwSTEP 2.0',
    'SolidWorks 2019',
    '' );
FILE_SCHEMA (( 'CONFIG_CONTROL_DESIGN' ));
ENDSEC;

DATA;
#1 = AXIS2_PLACEMENT_3D ( 'NONE', #8, #110, #36 ) ;
#2 = CARTESIAN_POINT ( 'NONE',  ( 0.0000000000000000000, 0.0000000000000000000, 0.0000000000000000000 ) ) ;
#3 = COORDINATED_UNIVERSAL_TIME_OFFSET ( 1, 0, .AHEAD. ) ;
#4 = DIRECTION ( 'NONE',  ( 4.279844320860545916E-31, 1.000000000000000000, 1.204669080539455507E-16 ) ) ;
#5 = EDGE_LOOP ( 'NONE', ( #140 ) ) ;
#6 = APPROVAL_ROLE ( '' ) ;
#7 = CARTESIAN_POINT ( 'NONE',  ( 0.0000000000000000000, 0.0000000000000000000, 0.0000000000000000000 ) ) ;
#8 = CARTESIAN_POINT ( 'NONE',  ( 4.189777606611760026E-14, 6.748919021978312708E-33, 12.00000000000000000 ) ) ;
#9 = EDGE_CURVE ( 'NONE', #93, #93, #29, .T. ) ;
#10 = AXIS2_PLACEMENT_3D ( 'NONE', #167, #145, #11 ) ;
#11 = DIRECTION ( 'NONE',  ( 0.0000000000000000000, 1.000000000000000000, 0.0000000000000000000 ) ) ;
#12 = DIRECTION ( 'NONE',  ( -3.491481338843133355E-15, 1.224646799147353207E-16, -1.000000000000000000 ) ) ;
#13 = PERSON_AND_ORGANIZATION_ROLE ( 'classification_officer' ) ;
#14 = CIRCLE ( 'NONE', #200, 0.8999999999999968026 ) ;
#15 = LOCAL_TIME ( 15, 34, 28.00000000000000000, #77 ) ;
#16 = ORIENTED_EDGE ( 'NONE', *, *, #57, .T. ) ;
#17 = DIRECTION ( 'NONE',  ( -3.491481338843133355E-15, 1.224646799147353207E-16, -1.000000000000000000 ) ) ;
#18 = FACE_OUTER_BOUND ( 'NONE', #30, .T. ) ;
#19 = EDGE_CURVE ( 'NONE', #71, #71, #175, .T. ) ;
#20 = VERTEX_POINT ( 'NONE', #67 ) ;
#21 = DIRECTION ( 'NONE',  ( 0.0000000000000000000, 0.0000000000000000000, 1.000000000000000000 ) ) ;
#22 = VERTEX_POINT ( 'NONE', #164 ) ;
#23 = LOCAL_TIME ( 15, 34, 28.00000000000000000, #196 ) ;
#24 = ORIENTED_EDGE ( 'NONE', *, *, #94, .T. ) ;
#25 = ADVANCED_FACE ( 'NONE', ( #75, #91 ), #136, .T. ) ;
#26 = EDGE_LOOP ( 'NONE', ( #173 ) ) ;
#27 = APPLICATION_CONTEXT ( 'configuration controlled 3d designs of mechanical parts and assemblies' ) ;
#28 = DIRECTION ( 'NONE',  ( 0.0000000000000000000, 1.000000000000000000, 0.0000000000000000000 ) ) ;
#29 = CIRCLE ( 'NONE', #113, 0.8999999999999953593 ) ;
#30 = EDGE_LOOP ( 'NONE', ( #155 ) ) ;
#31 = ORIENTED_EDGE ( 'NONE', *, *, #19, .T. ) ;
#32 = DIRECTION ( 'NONE',  ( 0.0000000000000000000, 1.000000000000000000, 0.0000000000000000000 ) ) ;
#33 = AXIS2_PLACEMENT_3D ( 'NONE', #120, #189, #28 ) ;
#34 = FACE_OUTER_BOUND ( 'NONE', #26, .T. ) ;
#35 = APPROVAL ( #76, 'UNSPECIFIED' ) ;
#36 = DIRECTION ( 'NONE',  ( -4.275831445896958607E-31, -1.000000000000000000, -1.224646799147353207E-16 ) ) ;
#37 = CALENDAR_DATE ( 2021, 15, 10 ) ;
#38 = LOCAL_TIME ( 15, 34, 28.00000000000000000, #130 ) ;
#39 = ADVANCED_FACE ( 'NONE', ( #124 ), #65, .F. ) ;
#40 = AXIS2_PLACEMENT_3D ( 'NONE', #100, #17, #193 ) ;
#41 = APPROVAL_PERSON_ORGANIZATION ( #46, #203, #82 ) ;
#42 = DATE_AND_TIME ( #135, #15 ) ;
#43 = EDGE_LOOP ( 'NONE', ( #31 ) ) ;
#44 = PERSON ( 'UNSPECIFIED', 'UNSPECIFIED', 'UNSPECIFIED', ('UNSPECIFIED'), ('UNSPECIFIED'), ('UNSPECIFIED') ) ;
#45 = DATE_AND_TIME ( #188, #72 ) ;
#46 = PERSON_AND_ORGANIZATION ( #44, #132 ) ;
#47 = DIRECTION ( 'NONE',  ( -4.279844320860545916E-31, -1.000000000000000000, -1.204669080539455507E-16 ) ) ;
#48 = DIRECTION ( 'NONE',  ( -3.491481338843133355E-15, 1.224646799147353207E-16, -1.000000000000000000 ) ) ;
#49 = DIRECTION ( 'NONE',  ( 1.000000000000000000, 0.0000000000000000000, 0.0000000000000000000 ) ) ;
#50 = APPROVAL ( #143, 'UNSPECIFIED' ) ;
#51 = FACE_OUTER_BOUND ( 'NONE', #142, .T. ) ;
#52 = CALENDAR_DATE ( 2021, 15, 10 ) ;
#53 = PLANE ( 'NONE',  #150 ) ;
#54 = DIRECTION ( 'NONE',  ( -3.491481338843133355E-15, 1.224646799147353207E-16, -1.000000000000000000 ) ) ;
#55 = APPROVAL_PERSON_ORGANIZATION ( #92, #50, #6 ) ;
#56 = PERSON_AND_ORGANIZATION ( #44, #132 ) ;
#57 = EDGE_CURVE ( 'NONE', #22, #22, #14, .T. ) ;
#58 = DIRECTION ( 'NONE',  ( -3.491481338843133355E-15, 1.224646799147353207E-16, -1.000000000000000000 ) ) ;
#59 = ORIENTED_EDGE ( 'NONE', *, *, #9, .F. ) ;
#60 = APPROVAL_ROLE ( '' ) ;
#61 = PRODUCT_RELATED_PRODUCT_CATEGORY ( 'detail', '', ( #109 ) ) ;
#62 = EDGE_LOOP ( 'NONE', ( #24 ) ) ;
#63 = CLOSED_SHELL ( 'NONE', ( #104, #105, #156 ) ) ;
#64 = DATE_AND_TIME ( #202, #38 ) ;
#65 = PLANE ( 'NONE',  #79 ) ;
#66 = ADVANCED_BREP_SHAPE_REPRESENTATION ( '31579', ( #133, #129, #201 ), #114 ) ;
#67 = CARTESIAN_POINT ( 'NONE',  ( 4.189777606611760026E-14, 0.8999999999999953593, 12.00000000000000000 ) ) ;
#68 = DIRECTION ( 'NONE',  ( 3.491481338843133355E-15, -1.224646799147353207E-16, 1.000000000000000000 ) ) ;
#69 = APPLICATION_PROTOCOL_DEFINITION ( 'international standard', 'config_control_design', 1994, #27 ) ;
#70 = DIRECTION ( 'NONE',  ( 3.491481338843133355E-15, -1.224646799147353207E-16, 1.000000000000000000 ) ) ;
#71 = VERTEX_POINT ( 'NONE', #123 ) ;
#72 = LOCAL_TIME ( 15, 34, 28.00000000000000000, #3 ) ;
#73 = CC_DESIGN_APPROVAL ( #203, ( #151 ) ) ;
#74 = EDGE_CURVE ( 'NONE', #20, #20, #89, .T. ) ;
#75 = FACE_OUTER_BOUND ( 'NONE', #186, .T. ) ;
#76 = APPROVAL_STATUS ( 'not_yet_approved' ) ;
#77 = COORDINATED_UNIVERSAL_TIME_OFFSET ( 1, 0, .AHEAD. ) ;
#78 = DIRECTION ( 'NONE',  ( 0.0000000000000000000, 1.000000000000000000, 0.0000000000000000000 ) ) ;
#79 = AXIS2_PLACEMENT_3D ( 'NONE', #97, #48, #107 ) ;
#80 = FACE_OUTER_BOUND ( 'NONE', #119, .T. ) ;
#81 = VERTEX_POINT ( 'NONE', #147 ) ;
#82 = APPROVAL_ROLE ( '' ) ;
#83 = PERSON_AND_ORGANIZATION ( #44, #132 ) ;
#84 = CARTESIAN_POINT ( 'NONE',  ( 1.143715752751337149E-15, -4.011614841411185421E-17, 0.3275732108395847386 ) ) ;
#85 = PERSON_AND_ORGANIZATION_ROLE ( 'creator' ) ;
#86 = DATE_TIME_ROLE ( 'classification_date' ) ;
#87 = CC_DESIGN_APPROVAL ( #35, ( #102 ) ) ;
#88 = EDGE_LOOP ( 'NONE', ( #59 ) ) ;
#89 = CIRCLE ( 'NONE', #10, 0.8999999999999968026 ) ;
#90 = APPLICATION_PROTOCOL_DEFINITION ( 'international standard', 'config_control_design', 1994, #170 ) ;
#91 = FACE_OUTER_BOUND ( 'NONE', #43, .T. ) ;
#92 = PERSON_AND_ORGANIZATION ( #44, #132 ) ;
#93 = VERTEX_POINT ( 'NONE', #181 ) ;
#94 = EDGE_CURVE ( 'NONE', #81, #81, #117, .T. ) ;
#95 = DIRECTION ( 'NONE',  ( -4.275831445896958607E-31, -1.000000000000000000, -1.224646799147353207E-16 ) ) ;
#96 = CARTESIAN_POINT ( 'NONE',  ( 1.326762908760390423E-13, -4.653657836759941941E-15, 38.00000000000000000 ) ) ;
#97 = CARTESIAN_POINT ( 'NONE',  ( 1.326762908760390423E-13, 4.499279347985502348E-33, 38.00000000000000000 ) ) ;
#98 = SHAPE_DEFINITION_REPRESENTATION ( #125, #66 ) ;
#99 = CC_DESIGN_PERSON_AND_ORGANIZATION_ASSIGNMENT ( #56, #171, ( #151 ) ) ;
#100 = CARTESIAN_POINT ( 'NONE',  ( 1.326762908760390423E-13, -4.653657836759941941E-15, 38.00000000000000000 ) ) ;
#101 = PERSON_AND_ORGANIZATION_ROLE ( 'design_supplier' ) ;
#102 = PRODUCT_DEFINITION_FORMATION_WITH_SPECIFIED_SOURCE ( 'ANY', '', #109, .NOT_KNOWN. ) ;
#103 = MECHANICAL_CONTEXT ( 'NONE', #27, 'mechanical' ) ;
#104 = ADVANCED_FACE ( 'NONE', ( #51 ), #192, .T. ) ;
#105 = ADVANCED_FACE ( 'NONE', ( #127, #106 ), #197, .T. ) ;
#106 = FACE_OUTER_BOUND ( 'NONE', #137, .T. ) ;
#107 = DIRECTION ( 'NONE',  ( 4.275831445896958607E-31, 1.000000000000000000, 1.224646799147353207E-16 ) ) ;
#108 =( NAMED_UNIT ( * ) SI_UNIT ( $, .STERADIAN. ) SOLID_ANGLE_UNIT ( ) );
#109 = PRODUCT ( '31579', '31579', '', ( #103 ) ) ;
#110 = DIRECTION ( 'NONE',  ( 3.491481338843133355E-15, -1.224646799147353207E-16, 1.000000000000000000 ) ) ;
#111 = PERSON_AND_ORGANIZATION ( #44, #132 ) ;
#112 = CARTESIAN_POINT ( 'NONE',  ( 4.189777606611760026E-14, 6.748919021978312708E-33, 12.00000000000000000 ) ) ;
#113 = AXIS2_PLACEMENT_3D ( 'NONE', #190, #139, #4 ) ;
#114 =( GEOMETRIC_REPRESENTATION_CONTEXT ( 3 ) GLOBAL_UNCERTAINTY_ASSIGNED_CONTEXT ( ( #141 ) ) GLOBAL_UNIT_ASSIGNED_CONTEXT ( ( #146, #184, #108 ) ) REPRESENTATION_CONTEXT ( 'NONE', 'WORKASPACE' ) );
#115 = PERSON_AND_ORGANIZATION_ROLE ( 'design_owner' ) ;
#116 = CLOSED_SHELL ( 'NONE', ( #179, #25, #138, #39 ) ) ;
#117 = CIRCLE ( 'NONE', #40, 0.5999999999999999778 ) ;
#118 = DATE_TIME_ROLE ( 'creation_date' ) ;
#119 = EDGE_LOOP ( 'NONE', ( #121 ) ) ;
#120 = CARTESIAN_POINT ( 'NONE',  ( 1.316288464743861212E-13, -4.616918432785521081E-15, 37.69999999999999574 ) ) ;
#121 = ORIENTED_EDGE ( 'NONE', *, *, #74, .T. ) ;
#122 = SECURITY_CLASSIFICATION ( '', '', #128 ) ;
#123 = CARTESIAN_POINT ( 'NONE',  ( 1.316288464743861212E-13, 0.8999999999999953593, 37.69999999999999574 ) ) ;
#124 = FACE_OUTER_BOUND ( 'NONE', #5, .T. ) ;
#125 = PRODUCT_DEFINITION_SHAPE ( 'NONE', 'NONE',  #151 ) ;
#126 = DIRECTION ( 'NONE',  ( -3.491481338843133355E-15, 1.224646799147353207E-16, -1.000000000000000000 ) ) ;
#127 = FACE_OUTER_BOUND ( 'NONE', #88, .T. ) ;
#128 = SECURITY_CLASSIFICATION_LEVEL ( 'unclassified' ) ;
#129 = MANIFOLD_SOLID_BREP ( 'Corps-Déplacer/Copier1[2]', #63 ) ;
#130 = COORDINATED_UNIVERSAL_TIME_OFFSET ( 1, 0, .AHEAD. ) ;
#131 = CC_DESIGN_DATE_AND_TIME_ASSIGNMENT ( #45, #118, ( #151 ) ) ;
#132 = ORGANIZATION ( 'UNSPECIFIED', 'UNSPECIFIED', '' ) ;
#133 = MANIFOLD_SOLID_BREP ( 'Corps-Déplacer/Copier1[1]', #116 ) ;
#134 = CC_DESIGN_PERSON_AND_ORGANIZATION_ASSIGNMENT ( #83, #85, ( #102 ) ) ;
#135 = CALENDAR_DATE ( 2021, 15, 10 ) ;
#136 = CYLINDRICAL_SURFACE ( 'NONE', #195, 0.8999999999999984679 ) ;
#137 = EDGE_LOOP ( 'NONE', ( #16 ) ) ;
#138 = ADVANCED_FACE ( 'NONE', ( #34, #177 ), #187, .T. ) ;
#139 = DIRECTION ( 'NONE',  ( -3.491481338843133355E-15, 1.224646799147353207E-16, -1.000000000000000000 ) ) ;
#140 = ORIENTED_EDGE ( 'NONE', *, *, #94, .F. ) ;
#141 = UNCERTAINTY_MEASURE_WITH_UNIT (LENGTH_MEASURE( 1.000000000000000082E-05 ), #146, 'distance_accuracy_value', 'NONE');
#142 = EDGE_LOOP ( 'NONE', ( #157 ) ) ;
#143 = APPROVAL_STATUS ( 'not_yet_approved' ) ;
#144 = CC_DESIGN_SECURITY_CLASSIFICATION ( #122, ( #102 ) ) ;
#145 = DIRECTION ( 'NONE',  ( -3.491481338843133355E-15, 1.224646799147353207E-16, -1.000000000000000000 ) ) ;
#146 =( LENGTH_UNIT ( ) NAMED_UNIT ( * ) SI_UNIT ( .MILLI., .METRE. ) );
#147 = CARTESIAN_POINT ( 'NONE',  ( 1.326762908760390423E-13, 0.5999999999999953149, 38.00000000000000000 ) ) ;
#148 = PERSON_AND_ORGANIZATION ( #44, #132 ) ;
#149 = PERSON_AND_ORGANIZATION ( #44, #132 ) ;
#150 = AXIS2_PLACEMENT_3D ( 'NONE', #112, #70, #95 ) ;
#151 = PRODUCT_DEFINITION ( 'UNKNOWN', '', #102, #191 ) ;
#152 = APPROVAL_DATE_TIME ( #168, #203 ) ;
#153 = CC_DESIGN_APPROVAL ( #50, ( #122 ) ) ;
#154 = PERSON_AND_ORGANIZATION ( #44, #132 ) ;
#155 = ORIENTED_EDGE ( 'NONE', *, *, #57, .F. ) ;
#156 = ADVANCED_FACE ( 'NONE', ( #18 ), #53, .T. ) ;
#157 = ORIENTED_EDGE ( 'NONE', *, *, #9, .T. ) ;
#158 = DIRECTION ( 'NONE',  ( 4.275831445896958607E-31, 1.000000000000000000, 1.224646799147353207E-16 ) ) ;
#159 = AXIS2_PLACEMENT_3D ( 'NONE', #84, #68, #47 ) ;
#160 = LOCAL_TIME ( 15, 34, 28.00000000000000000, #163 ) ;
#161 = PLANE ( 'NONE',  #1 ) ;
#162 = CC_DESIGN_PERSON_AND_ORGANIZATION_ASSIGNMENT ( #111, #101, ( #102 ) ) ;
#163 = COORDINATED_UNIVERSAL_TIME_OFFSET ( 1, 0, .AHEAD. ) ;
#164 = CARTESIAN_POINT ( 'NONE',  ( 4.189777606611760026E-14, 0.8999999999999953593, 12.00000000000000000 ) ) ;
#165 = DATE_AND_TIME ( #52, #23 ) ;
#166 = AXIS2_PLACEMENT_3D ( 'NONE', #7, #126, #180 ) ;
#167 = CARTESIAN_POINT ( 'NONE',  ( 4.189777606611760026E-14, -1.469576158976823947E-15, 12.00000000000000000 ) ) ;
#168 = DATE_AND_TIME ( #37, #160 ) ;
#169 = CARTESIAN_POINT ( 'NONE',  ( 0.0000000000000000000, 0.0000000000000000000, 0.0000000000000000000 ) ) ;
#170 = APPLICATION_CONTEXT ( 'configuration controlled 3d designs of mechanical parts and assemblies' ) ;
#171 = PERSON_AND_ORGANIZATION_ROLE ( 'creator' ) ;
#172 = CC_DESIGN_PERSON_AND_ORGANIZATION_ASSIGNMENT ( #148, #115, ( #109 ) ) ;
#173 = ORIENTED_EDGE ( 'NONE', *, *, #19, .F. ) ;
#174 = CC_DESIGN_PERSON_AND_ORGANIZATION_ASSIGNMENT ( #149, #13, ( #122 ) ) ;
#175 = CIRCLE ( 'NONE', #33, 0.9000000000000000222 ) ;
#176 = ORIENTED_EDGE ( 'NONE', *, *, #74, .F. ) ;
#177 = FACE_BOUND ( 'NONE', #62, .T. ) ;
#178 = AXIS2_PLACEMENT_3D ( 'NONE', #96, #12, #32 ) ;
#179 = ADVANCED_FACE ( 'NONE', ( #80 ), #161, .F. ) ;
#180 = DIRECTION ( 'NONE',  ( 4.275831445896958607E-31, 1.000000000000000000, 1.224646799147353454E-16 ) ) ;
#181 = CARTESIAN_POINT ( 'NONE',  ( 1.143715752751337544E-15, 0.8999999999999953593, 0.3275732108395848496 ) ) ;
#182 = APPROVAL_DATE_TIME ( #165, #50 ) ;
#183 = CC_DESIGN_DATE_AND_TIME_ASSIGNMENT ( #64, #86, ( #122 ) ) ;
#184 =( NAMED_UNIT ( * ) PLANE_ANGLE_UNIT ( ) SI_UNIT ( $, .RADIAN. ) );
#185 = APPROVAL_PERSON_ORGANIZATION ( #154, #35, #60 ) ;
#186 = EDGE_LOOP ( 'NONE', ( #176 ) ) ;
#187 = CONICAL_SURFACE ( 'NONE', #178, 0.5999999999999999778, 0.7853981633974456145 ) ;
#188 = CALENDAR_DATE ( 2021, 15, 10 ) ;
#189 = DIRECTION ( 'NONE',  ( -3.491481338843133355E-15, 1.224646799147353207E-16, -1.000000000000000000 ) ) ;
#190 = CARTESIAN_POINT ( 'NONE',  ( 1.143715752751337149E-15, -4.011614841411185421E-17, 0.3275732108395847386 ) ) ;
#191 = DESIGN_CONTEXT ( 'detailed design', #170, 'design' ) ;
#192 = CONICAL_SURFACE ( 'NONE', #159, 0.8999999999999953593, 1.221730476396026388 ) ;
#193 = DIRECTION ( 'NONE',  ( 0.0000000000000000000, 1.000000000000000000, 0.0000000000000000000 ) ) ;
#194 = APPROVAL_STATUS ( 'not_yet_approved' ) ;
#195 = AXIS2_PLACEMENT_3D ( 'NONE', #2, #58, #158 ) ;
#196 = COORDINATED_UNIVERSAL_TIME_OFFSET ( 1, 0, .AHEAD. ) ;
#197 = CYLINDRICAL_SURFACE ( 'NONE', #166, 0.8999999999999960254 ) ;
#198 = APPROVAL_DATE_TIME ( #42, #35 ) ;
#199 = CARTESIAN_POINT ( 'NONE',  ( 4.189777606611760026E-14, -1.469576158976823947E-15, 12.00000000000000000 ) ) ;
#200 = AXIS2_PLACEMENT_3D ( 'NONE', #199, #54, #78 ) ;
#201 = AXIS2_PLACEMENT_3D ( 'NONE', #169, #21, #49 ) ;
#202 = CALENDAR_DATE ( 2021, 15, 10 ) ;
#203 = APPROVAL ( #194, 'UNSPECIFIED' ) ;
ENDSEC;
END-ISO-10303-21;
