ISO-10303-21;
HEADER;
FILE_DESCRIPTION (( 'STEP AP203' ),
    '1' );
FILE_NAME ('31578.step',
    '2021-10-15T13:34:27',
    ( '' ),
    ( '' ),
    'SwSTEP 2.0',
    'SolidWorks 2019',
    '' );
FILE_SCHEMA (( 'CONFIG_CONTROL_DESIGN' ));
ENDSEC;

DATA;
#1 = FACE_OUTER_BOUND ( 'NONE', #143, .T. ) ;
#2 = ADVANCED_FACE ( 'NONE', ( #146 ), #3, .T. ) ;
#3 = CONICAL_SURFACE ( 'NONE', #109, 0.8499999999999953149, 1.221730476396026388 ) ;
#4 = DATE_AND_TIME ( #148, #38 ) ;
#5 = PERSON_AND_ORGANIZATION ( #52, #27 ) ;
#6 = DATE_AND_TIME ( #115, #173 ) ;
#7 = AXIS2_PLACEMENT_3D ( 'NONE', #48, #82, #196 ) ;
#8 = DIRECTION ( 'NONE',  ( -3.491481338843133355E-15, 1.224646799147353207E-16, -1.000000000000000000 ) ) ;
#9 = VERTEX_POINT ( 'NONE', #165 ) ;
#10 = DIRECTION ( 'NONE',  ( -3.491481338843133355E-15, 1.224646799147353207E-16, -1.000000000000000000 ) ) ;
#11 = CC_DESIGN_DATE_AND_TIME_ASSIGNMENT ( #16, #171, ( #136 ) ) ;
#12 = DIRECTION ( 'NONE',  ( 0.0000000000000000000, 1.000000000000000000, 0.0000000000000000000 ) ) ;
#13 = APPLICATION_PROTOCOL_DEFINITION ( 'international standard', 'config_control_design', 1994, #56 ) ;
#14 = CALENDAR_DATE ( 2021, 15, 10 ) ;
#15 = EDGE_CURVE ( 'NONE', #105, #105, #184, .T. ) ;
#16 = DATE_AND_TIME ( #84, #35 ) ;
#17 = EDGE_LOOP ( 'NONE', ( #37 ) ) ;
#18 = AXIS2_PLACEMENT_3D ( 'NONE', #85, #203, #19 ) ;
#19 = DIRECTION ( 'NONE',  ( 0.0000000000000000000, 1.000000000000000000, 0.0000000000000000000 ) ) ;
#20 = PERSON_AND_ORGANIZATION ( #52, #27 ) ;
#21 = CC_DESIGN_PERSON_AND_ORGANIZATION_ASSIGNMENT ( #20, #70, ( #61 ) ) ;
#22 = COORDINATED_UNIVERSAL_TIME_OFFSET ( 1, 0, .AHEAD. ) ;
#23 = CALENDAR_DATE ( 2021, 15, 10 ) ;
#24 = EDGE_LOOP ( 'NONE', ( #161 ) ) ;
#25 = FACE_OUTER_BOUND ( 'NONE', #36, .T. ) ;
#26 = DESIGN_CONTEXT ( 'detailed design', #181, 'design' ) ;
#27 = ORGANIZATION ( 'UNSPECIFIED', 'UNSPECIFIED', '' ) ;
#28 = DIRECTION ( 'NONE',  ( 4.275831445896958607E-31, 1.000000000000000000, 1.224646799147352961E-16 ) ) ;
#29 = CARTESIAN_POINT ( 'NONE',  ( 4.189777606611760026E-14, 6.373979076312848306E-33, 12.00000000000000000 ) ) ;
#30 = ADVANCED_FACE ( 'NONE', ( #1 ), #185, .F. ) ;
#31 = DIRECTION ( 'NONE',  ( -3.491481338843133355E-15, 1.224646799147353207E-16, -1.000000000000000000 ) ) ;
#32 = DIRECTION ( 'NONE',  ( 0.0000000000000000000, 1.000000000000000000, 0.0000000000000000000 ) ) ;
#33 = AXIS2_PLACEMENT_3D ( 'NONE', #107, #152, #28 ) ;
#34 = LOCAL_TIME ( 15, 34, 27.00000000000000000, #65 ) ;
#35 = LOCAL_TIME ( 15, 34, 27.00000000000000000, #45 ) ;
#36 = EDGE_LOOP ( 'NONE', ( #158 ) ) ;
#37 = ORIENTED_EDGE ( 'NONE', *, *, #111, .F. ) ;
#38 = LOCAL_TIME ( 15, 34, 27.00000000000000000, #22 ) ;
#39 = FACE_OUTER_BOUND ( 'NONE', #17, .T. ) ;
#40 = CIRCLE ( 'NONE', #86, 0.8499999999999999778 ) ;
#41 = DIRECTION ( 'NONE',  ( -3.491481338843133355E-15, 1.224646799147353207E-16, -1.000000000000000000 ) ) ;
#42 = CYLINDRICAL_SURFACE ( 'NONE', #168, 0.8499999999999983125 ) ;
#43 = FACE_OUTER_BOUND ( 'NONE', #199, .T. ) ;
#44 = AXIS2_PLACEMENT_3D ( 'NONE', #177, #118, #32 ) ;
#45 = COORDINATED_UNIVERSAL_TIME_OFFSET ( 1, 0, .AHEAD. ) ;
#46 = DATE_AND_TIME ( #14, #34 ) ;
#47 = ADVANCED_FACE ( 'NONE', ( #75, #176 ), #79, .T. ) ;
#48 = CARTESIAN_POINT ( 'NONE',  ( 0.0000000000000000000, 0.0000000000000000000, 0.0000000000000000000 ) ) ;
#49 = ORIENTED_EDGE ( 'NONE', *, *, #202, .F. ) ;
#50 = ORIENTED_EDGE ( 'NONE', *, *, #15, .T. ) ;
#51 = APPROVAL_DATE_TIME ( #4, #182 ) ;
#52 = PERSON ( 'UNSPECIFIED', 'UNSPECIFIED', 'UNSPECIFIED', ('UNSPECIFIED'), ('UNSPECIFIED'), ('UNSPECIFIED') ) ;
#53 = ADVANCED_FACE ( 'NONE', ( #119, #153 ), #104, .T. ) ;
#54 = VERTEX_POINT ( 'NONE', #137 ) ;
#55 = DIRECTION ( 'NONE',  ( 4.275831445896958607E-31, 1.000000000000000000, 1.224646799147353207E-16 ) ) ;
#56 = APPLICATION_CONTEXT ( 'configuration controlled 3d designs of mechanical parts and assemblies' ) ;
#57 = CIRCLE ( 'NONE', #113, 0.8499999999999967581 ) ;
#58 = VERTEX_POINT ( 'NONE', #74 ) ;
#59 = CARTESIAN_POINT ( 'NONE',  ( 4.189777606611760026E-14, -1.469576158976823947E-15, 12.00000000000000000 ) ) ;
#60 = EDGE_CURVE ( 'NONE', #9, #9, #68, .T. ) ;
#61 = PRODUCT_DEFINITION_FORMATION_WITH_SPECIFIED_SOURCE ( 'ANY', '', #103, .NOT_KNOWN. ) ;
#62 = PERSON_AND_ORGANIZATION ( #52, #27 ) ;
#63 = PERSON_AND_ORGANIZATION ( #52, #27 ) ;
#64 = EDGE_LOOP ( 'NONE', ( #117 ) ) ;
#65 = COORDINATED_UNIVERSAL_TIME_OFFSET ( 1, 0, .AHEAD. ) ;
#66 = CARTESIAN_POINT ( 'NONE',  ( 1.326762908760390423E-13, 4.124339402320038630E-33, 38.00000000000000000 ) ) ;
#67 = PERSON_AND_ORGANIZATION ( #52, #27 ) ;
#68 = CIRCLE ( 'NONE', #91, 0.5500000000000000444 ) ;
#69 = PRODUCT_DEFINITION_SHAPE ( 'NONE', 'NONE',  #136 ) ;
#70 = PERSON_AND_ORGANIZATION_ROLE ( 'creator' ) ;
#71 = ORIENTED_EDGE ( 'NONE', *, *, #111, .T. ) ;
#72 = DIRECTION ( 'NONE',  ( -4.275831445896958607E-31, -1.000000000000000000, -1.224646799147353207E-16 ) ) ;
#73 = DIRECTION ( 'NONE',  ( 4.531599869146461927E-31, 1.000000000000000000, 1.275531967630012148E-16 ) ) ;
#74 = CARTESIAN_POINT ( 'NONE',  ( 1.080175988709596186E-15, 0.8499999999999953149, 0.3093746991262744661 ) ) ;
#75 = FACE_OUTER_BOUND ( 'NONE', #190, .T. ) ;
#76 = EDGE_CURVE ( 'NONE', #58, #58, #160, .T. ) ;
#77 = DIRECTION ( 'NONE',  ( -3.491481338843133355E-15, 1.224646799147353207E-16, -1.000000000000000000 ) ) ;
#78 = MECHANICAL_CONTEXT ( 'NONE', #56, 'mechanical' ) ;
#79 = CONICAL_SURFACE ( 'NONE', #44, 0.5500000000000000444, 0.7853981633974453924 ) ;
#80 = APPLICATION_PROTOCOL_DEFINITION ( 'international standard', 'config_control_design', 1994, #181 ) ;
#81 = CC_DESIGN_DATE_AND_TIME_ASSIGNMENT ( #6, #186, ( #133 ) ) ;
#82 = DIRECTION ( 'NONE',  ( 0.0000000000000000000, 0.0000000000000000000, 1.000000000000000000 ) ) ;
#83 = ADVANCED_BREP_SHAPE_REPRESENTATION ( '31578', ( #192, #193, #7 ), #159 ) ;
#84 = CALENDAR_DATE ( 2021, 15, 10 ) ;
#85 = CARTESIAN_POINT ( 'NONE',  ( 4.189777606611760026E-14, -1.469576158976823947E-15, 12.00000000000000000 ) ) ;
#86 = AXIS2_PLACEMENT_3D ( 'NONE', #134, #41, #12 ) ;
#87 = ADVANCED_FACE ( 'NONE', ( #122, #25 ), #42, .T. ) ;
#88 = APPROVAL_STATUS ( 'not_yet_approved' ) ;
#89 = EDGE_LOOP ( 'NONE', ( #197 ) ) ;
#90 = DIRECTION ( 'NONE',  ( -3.491481338843133355E-15, 1.224646799147353207E-16, -1.000000000000000000 ) ) ;
#91 = AXIS2_PLACEMENT_3D ( 'NONE', #164, #10, #140 ) ;
#92 = DIRECTION ( 'NONE',  ( 3.491481338843133355E-15, -1.224646799147353207E-16, 1.000000000000000000 ) ) ;
#93 = LOCAL_TIME ( 15, 34, 27.00000000000000000, #131 ) ;
#94 = CARTESIAN_POINT ( 'NONE',  ( 1.316288464743861212E-13, 0.8499999999999953149, 37.69999999999999574 ) ) ;
#95 = CC_DESIGN_APPROVAL ( #97, ( #61 ) ) ;
#96 = PERSON_AND_ORGANIZATION_ROLE ( 'design_owner' ) ;
#97 = APPROVAL ( #88, 'UNSPECIFIED' ) ;
#98 = AXIS2_PLACEMENT_3D ( 'NONE', #29, #92, #178 ) ;
#99 = ORIENTED_EDGE ( 'NONE', *, *, #76, .F. ) ;
#100 = COORDINATED_UNIVERSAL_TIME_OFFSET ( 1, 0, .AHEAD. ) ;
#101 = SHAPE_DEFINITION_REPRESENTATION ( #69, #83 ) ;
#102 = PERSON_AND_ORGANIZATION ( #52, #27 ) ;
#103 = PRODUCT ( '31578', '31578', '', ( #78 ) ) ;
#104 = CYLINDRICAL_SURFACE ( 'NONE', #33, 0.8499999999999960920 ) ;
#105 = VERTEX_POINT ( 'NONE', #106 ) ;
#106 = CARTESIAN_POINT ( 'NONE',  ( 4.189777606611760026E-14, 0.8499999999999953149, 12.00000000000000000 ) ) ;
#107 = CARTESIAN_POINT ( 'NONE',  ( 0.0000000000000000000, 0.0000000000000000000, 0.0000000000000000000 ) ) ;
#108 = CARTESIAN_POINT ( 'NONE',  ( 0.0000000000000000000, 0.0000000000000000000, 0.0000000000000000000 ) ) ;
#109 = AXIS2_PLACEMENT_3D ( 'NONE', #172, #127, #183 ) ;
#110 = AXIS2_PLACEMENT_3D ( 'NONE', #66, #90, #55 ) ;
#111 = EDGE_CURVE ( 'NONE', #54, #54, #57, .T. ) ;
#112 = EDGE_LOOP ( 'NONE', ( #71 ) ) ;
#113 = AXIS2_PLACEMENT_3D ( 'NONE', #59, #8, #175 ) ;
#114 = CC_DESIGN_PERSON_AND_ORGANIZATION_ASSIGNMENT ( #5, #174, ( #133 ) ) ;
#115 = CALENDAR_DATE ( 2021, 15, 10 ) ;
#116 = DATE_AND_TIME ( #23, #93 ) ;
#117 = ORIENTED_EDGE ( 'NONE', *, *, #60, .T. ) ;
#118 = DIRECTION ( 'NONE',  ( -3.491481338843133355E-15, 1.224646799147353207E-16, -1.000000000000000000 ) ) ;
#119 = FACE_OUTER_BOUND ( 'NONE', #144, .T. ) ;
#120 = APPROVAL_PERSON_ORGANIZATION ( #63, #132, #126 ) ;
#121 = ADVANCED_FACE ( 'NONE', ( #39 ), #167, .T. ) ;
#122 = FACE_OUTER_BOUND ( 'NONE', #89, .T. ) ;
#123 = VERTEX_POINT ( 'NONE', #94 ) ;
#124 = CARTESIAN_POINT ( 'NONE',  ( 4.189777606611760026E-14, 6.373979076312848306E-33, 12.00000000000000000 ) ) ;
#125 = CC_DESIGN_APPROVAL ( #132, ( #136 ) ) ;
#126 = APPROVAL_ROLE ( '' ) ;
#127 = DIRECTION ( 'NONE',  ( 3.491481338843133355E-15, -1.224646799147353207E-16, 1.000000000000000000 ) ) ;
#128 = ORIENTED_EDGE ( 'NONE', *, *, #60, .F. ) ;
#129 = APPROVAL_DATE_TIME ( #116, #97 ) ;
#130 = UNCERTAINTY_MEASURE_WITH_UNIT (LENGTH_MEASURE( 1.000000000000000082E-05 ), #154, 'distance_accuracy_value', 'NONE');
#131 = COORDINATED_UNIVERSAL_TIME_OFFSET ( 1, 0, .AHEAD. ) ;
#132 = APPROVAL ( #198, 'UNSPECIFIED' ) ;
#133 = SECURITY_CLASSIFICATION ( '', '', #162 ) ;
#134 = CARTESIAN_POINT ( 'NONE',  ( 1.316288464743861212E-13, -4.616918432785521081E-15, 37.69999999999999574 ) ) ;
#135 =( NAMED_UNIT ( * ) SI_UNIT ( $, .STERADIAN. ) SOLID_ANGLE_UNIT ( ) );
#136 = PRODUCT_DEFINITION ( 'UNKNOWN', '', #61, #26 ) ;
#137 = CARTESIAN_POINT ( 'NONE',  ( 4.189777606611760026E-14, 0.8499999999999953149, 12.00000000000000000 ) ) ;
#138 = CLOSED_SHELL ( 'NONE', ( #2, #53, #121 ) ) ;
#139 = DIRECTION ( 'NONE',  ( 3.491481338843133355E-15, -1.224646799147353207E-16, 1.000000000000000000 ) ) ;
#140 = DIRECTION ( 'NONE',  ( 0.0000000000000000000, 1.000000000000000000, 0.0000000000000000000 ) ) ;
#141 = PERSON_AND_ORGANIZATION ( #52, #27 ) ;
#142 = CC_DESIGN_APPROVAL ( #182, ( #133 ) ) ;
#143 = EDGE_LOOP ( 'NONE', ( #128 ) ) ;
#144 = EDGE_LOOP ( 'NONE', ( #99 ) ) ;
#145 = APPROVAL_PERSON_ORGANIZATION ( #102, #182, #188 ) ;
#146 = FACE_OUTER_BOUND ( 'NONE', #24, .T. ) ;
#147 = APPROVAL_STATUS ( 'not_yet_approved' ) ;
#148 = CALENDAR_DATE ( 2021, 15, 10 ) ;
#149 = PERSON_AND_ORGANIZATION_ROLE ( 'design_supplier' ) ;
#150 = CARTESIAN_POINT ( 'NONE',  ( 1.080175988709595791E-15, -3.788747350221673408E-17, 0.3093746991262743551 ) ) ;
#151 = PRODUCT_RELATED_PRODUCT_CATEGORY ( 'detail', '', ( #103 ) ) ;
#152 = DIRECTION ( 'NONE',  ( -3.491481338843133355E-15, 1.224646799147353207E-16, -1.000000000000000000 ) ) ;
#153 = FACE_OUTER_BOUND ( 'NONE', #112, .T. ) ;
#154 =( LENGTH_UNIT ( ) NAMED_UNIT ( * ) SI_UNIT ( .MILLI., .METRE. ) );
#155 = APPROVAL_PERSON_ORGANIZATION ( #201, #97, #163 ) ;
#156 = CC_DESIGN_PERSON_AND_ORGANIZATION_ASSIGNMENT ( #141, #180, ( #136 ) ) ;
#157 = APPROVAL_DATE_TIME ( #46, #132 ) ;
#158 = ORIENTED_EDGE ( 'NONE', *, *, #202, .T. ) ;
#159 =( GEOMETRIC_REPRESENTATION_CONTEXT ( 3 ) GLOBAL_UNCERTAINTY_ASSIGNED_CONTEXT ( ( #130 ) ) GLOBAL_UNIT_ASSIGNED_CONTEXT ( ( #154, #191, #135 ) ) REPRESENTATION_CONTEXT ( 'NONE', 'WORKASPACE' ) );
#160 = CIRCLE ( 'NONE', #200, 0.8499999999999953149 ) ;
#161 = ORIENTED_EDGE ( 'NONE', *, *, #76, .T. ) ;
#162 = SECURITY_CLASSIFICATION_LEVEL ( 'unclassified' ) ;
#163 = APPROVAL_ROLE ( '' ) ;
#164 = CARTESIAN_POINT ( 'NONE',  ( 1.326762908760390423E-13, -4.653657836759941941E-15, 38.00000000000000000 ) ) ;
#165 = CARTESIAN_POINT ( 'NONE',  ( 1.326762908760390423E-13, 0.5499999999999953815, 38.00000000000000000 ) ) ;
#166 = AXIS2_PLACEMENT_3D ( 'NONE', #124, #139, #72 ) ;
#167 = PLANE ( 'NONE',  #98 ) ;
#168 = AXIS2_PLACEMENT_3D ( 'NONE', #108, #77, #194 ) ;
#169 = CC_DESIGN_PERSON_AND_ORGANIZATION_ASSIGNMENT ( #62, #96, ( #103 ) ) ;
#170 = ADVANCED_FACE ( 'NONE', ( #43 ), #195, .F. ) ;
#171 = DATE_TIME_ROLE ( 'creation_date' ) ;
#172 = CARTESIAN_POINT ( 'NONE',  ( 1.080175988709595791E-15, -3.788747350221673408E-17, 0.3093746991262743551 ) ) ;
#173 = LOCAL_TIME ( 15, 34, 27.00000000000000000, #100 ) ;
#174 = PERSON_AND_ORGANIZATION_ROLE ( 'classification_officer' ) ;
#175 = DIRECTION ( 'NONE',  ( 0.0000000000000000000, 1.000000000000000000, 0.0000000000000000000 ) ) ;
#176 = FACE_BOUND ( 'NONE', #64, .T. ) ;
#177 = CARTESIAN_POINT ( 'NONE',  ( 1.326762908760390423E-13, -4.653657836759941941E-15, 38.00000000000000000 ) ) ;
#178 = DIRECTION ( 'NONE',  ( -4.275831445896958607E-31, -1.000000000000000000, -1.224646799147353207E-16 ) ) ;
#179 = CLOSED_SHELL ( 'NONE', ( #170, #87, #47, #30 ) ) ;
#180 = PERSON_AND_ORGANIZATION_ROLE ( 'creator' ) ;
#181 = APPLICATION_CONTEXT ( 'configuration controlled 3d designs of mechanical parts and assemblies' ) ;
#182 = APPROVAL ( #147, 'UNSPECIFIED' ) ;
#183 = DIRECTION ( 'NONE',  ( -4.531599869146461927E-31, -1.000000000000000000, -1.275531967630012148E-16 ) ) ;
#184 = CIRCLE ( 'NONE', #18, 0.8499999999999967581 ) ;
#185 = PLANE ( 'NONE',  #110 ) ;
#186 = DATE_TIME_ROLE ( 'classification_date' ) ;
#187 = CC_DESIGN_PERSON_AND_ORGANIZATION_ASSIGNMENT ( #67, #149, ( #61 ) ) ;
#188 = APPROVAL_ROLE ( '' ) ;
#189 = CC_DESIGN_SECURITY_CLASSIFICATION ( #133, ( #61 ) ) ;
#190 = EDGE_LOOP ( 'NONE', ( #49 ) ) ;
#191 =( NAMED_UNIT ( * ) PLANE_ANGLE_UNIT ( ) SI_UNIT ( $, .RADIAN. ) );
#192 = MANIFOLD_SOLID_BREP ( 'Corps-Déplacer/Copier1[1]', #179 ) ;
#193 = MANIFOLD_SOLID_BREP ( 'Corps-Déplacer/Copier1[2]', #138 ) ;
#194 = DIRECTION ( 'NONE',  ( 4.275831445896958607E-31, 1.000000000000000000, 1.224646799147353207E-16 ) ) ;
#195 = PLANE ( 'NONE',  #166 ) ;
#196 = DIRECTION ( 'NONE',  ( 1.000000000000000000, 0.0000000000000000000, 0.0000000000000000000 ) ) ;
#197 = ORIENTED_EDGE ( 'NONE', *, *, #15, .F. ) ;
#198 = APPROVAL_STATUS ( 'not_yet_approved' ) ;
#199 = EDGE_LOOP ( 'NONE', ( #50 ) ) ;
#200 = AXIS2_PLACEMENT_3D ( 'NONE', #150, #31, #73 ) ;
#201 = PERSON_AND_ORGANIZATION ( #52, #27 ) ;
#202 = EDGE_CURVE ( 'NONE', #123, #123, #40, .T. ) ;
#203 = DIRECTION ( 'NONE',  ( -3.491481338843133355E-15, 1.224646799147353207E-16, -1.000000000000000000 ) ) ;
ENDSEC;
END-ISO-10303-21;
